George Harrison

home > George Harrison

My Sweet Lord Tab

George Harrison

Difficulty: ExpertExpert

by Kikinho

tuner correct add songbook print version text version save to e-mail
chordsukulelecavacokeyboardtabbassdrumsharmonicsflute Guitar Pro
chords

My Sweet Lord

  		D             Bm  
-14/16--14/12--12/14--12----------| 
-------------------------14-14~---| 
----------------------------------| 
----------------------------------| 
----------------------------------| 
----------------------------------| 
 
 D                       Bm  
-14/16--14/12--12/14--12----------12--------| 
-------------------------14-12/14-----14/12-| 
--------------------------------------------| 
--------------------------------------------| 
--------------------------------------------| 
--------------------------------------------| 
 
 D    F#dim       B7              Em                
-14/16--14/12-----16\13-13\10-10\7-7/10/13---9---9---9-------| 
--------------------------------------------10--10--10--9-7~-| 
------------------16\13-13\10-10\7-7/10/13--------------9-8~-| 
-------------------------------------------------------------| 
-------------------------------------------------------------| 
-------------------------------------------------------------|  
 
Cifrado por 
Thiago Aragão 

	  

Full key step upFull key step up
Half key step upHalf key step up
Half key step downHalf key step down
Full key step downFull key step down
Search Paypal
auto scroll beats size up size down change color hide chords drawings
tab show chords e-chords YouTube Clip e-chords hide all tabs e-chords go to top tab