Gary Moore

Still Got the Blues (ver. 2)

Gary Moore

tabs Beginner beginner

save to print version add songbook text version e-mail correct tuner
chordsukulelecavacokeyboardtabbassdrumsharmonicaflute Guitar Pro
close

there isn't a video lesson for this song

chords

Still Got the Blues (ver. 2)

	  		 
Esse cara toca muito mano!!!Para tocar é necessário um bom pedal de 
distorção (eu sugiro um overdrive da Onerr), na tablatura estará 
quando a distorção deve ser acionada. Divirta-se!  
 
Distorção 
|--------------------------------------------------------------------------| 
|----15-17-17b18r17~~-17-15~~--13-15-15b17~-15b17-13---10-12-13-13b15~~----| 
|-14-----------------------------------------------------------------------| 
|--------------------------------------------------------------------------| 
|--------------------------------------------------------------------------| 
|--------------------------------------------------------------------------| 
 
|---------------------------| 
|-13b15-12---10-------------| 
|----------x----12~-12b14~~-| 
|----------x----------------| 
|---------------------------| 
|---------------------------| 
Guitarra Limpa 
|-------1-------------1-----------0-----------0-----------1--------| 
|-----1---1---------1---1-------0---0-------1---1-------3---3------| 
|---2-------2-----2-------2---0-------0---2-------2---2-------2----| 
|-0-------------0-----------------------3--------------------------| 
|---------------------------3-----------------------2--------------| 
|-------------3----------------------------------------------------| 
 
|-------0-----------------------------------1-----------1----------| 
|-----0---0-------1-----1-----1-----------1---1-------1---1--------| 
|---1-------1---2-----2-----2-----------2-------2---2-------2------| 
|-----------------------------------3-0----------------------------| 
|-------------0-----2-----3-----0-2--------------------------------| 
|-0-----------------------------------------------3----------------| 
 
|-------0-----------0-----------1-----------1------------0-----------0-| 
|-----0---0-------1---1-------3---3-------3---3----------1-----------1-| 
|---0-------0---2-------2---2-------2---2-------2--1-1-1-0-1-1-1-1-1-0-| 
|-------------3------------------------------------0-0-0-0-0-0-0-0-0-0-| 
|-3-----------------------2-----------2------------2-2-2---2-2-2-2-2---| 
|--------------------------------------------------0-0-0---0-0-0-0-0---| 
                                                      . . 
|-----------5-----------7-----------5-----------5---------------5------| 
|-----------5-----------8-----------5-----------5-----8-8-------5------| 
|-1-1-------5-----9-9-9-9-9-9-------5-----5-5-5-5-5-5-8-7-------5------| 
|-0-0-7-7-7---7-7-9-9-9---9-9-7-7-7---7-7-4-4-4---4-4-7-8-7-7-7---7-7--| 
|-2-2-7-7-7---7-7-7-7-7---7-7-7-7-7---7-7-5-5-5---5-5-8-8-7-7-7---7-7--| 
|-0-0-5-5-5---5-5-------------5-5-5---5-5-----------------5-5-5---5-5--| 
 
|-5--------| 
|-5--------| 
|-5--------| 
|-7------2-| 
|-7---0-3--| 
|-5--------| 
   G.L.    D.    G.L.    D.      G.L.   D.   G.L.    D.              G.L. 
|------2------------1---------------1----------------------------------1----| 
|----1---tr-8-8---3----10-8-------3--------------1--8b10-5-----------1---1--| 
|--1-----79-----2-----------9-7-2-----7pr9r7---2-----------7p5-----2-------2| 
|0-----------------------------------------------------------7~~------------| 
|--------------------------------------------0------------------------------| 
|---------------------------------------------------------------------------| 
     D.                     G.L.     D. 
|-tr------------10-------------------------------| 
|-810-13-13b15~----13-8-13-------13b15~-15-x-----| 
|--------------------------1-1-1-----------------| 
|--------------------------0-0-0-----------------| 
|--------------------------2-2-2-----------------| 
|--------------------------0-0-0-----------------| 
      G.L.                          D.                 G.L.     
|-------5-----------5----------5-----------------------2-----------2------| 
|-------5-----------5-----8-8--5-----------------3-3-3-3-3-2-------3------| 
|-------5-----5-5-5-5-5-5-8-8--5-7b9r7-5---------2-2-2-2-2-3-2-2-2-2-2-2--| 
|-7-7-7---7-7-4-4-4---4-4-7-7--7---------7-7-7~~-4-4-4-4-4-4-4-4-4-4-4-4--| 
|-7-7-7---7-7-5-5-5---5-5-8-8--7-----------------2-2-2---2-2-2-2-2---2-2--| 
|-5-5-5---5-5------------------5-----------------------------0-0-0---0-0--| 
 
 
 
 
      G.L.         D.                         G.L.                D. 
|-------0--------------------------------0-0-1-------5-------------------------| 
|-------1-13b15r13~-10-13b15-13b15r13~~~-1-1-1-------5---------15-17-17b18r17~-| 
|-2-2-2-2--------------------------------2-0-2-5-5-5-5-5-5--14-----------------| 
|-2-2-2-2--------------------------------3-2-0-7-7-7---7-7---------------------| 
|-0-0-0-2--------------------------------------7-7-7---7-7---------------------| 
|----------------------------------------------5-5-5---5-5---------------------| 
 
|--------------------------------------------------------------------------| 
|-17-15~~----13-15-15b17~-15b17r15~~-13---10-12-13-13b15~-13b15~-12~-10----| 
|---------12------------------------------------------------------------12-| 
|--------------------------------------------------------------------------| 
|--------------------------------------------------------------------------| 
|--------------------------------------------------------------------------| 
 
|------------------------------15--------------------------15-12-------| 
|-10-12-13~~----15-17-17b18r17----15b17r15----13-15-15b17~-------15-13~| 
|------------14----------------------------12--------------------------| 
|----------------------------------------------------------------------| 
|----------------------------------------------------------------------| 
|----------------------------------------------------------------------| 
 
|---------------------------------------------------------------20b22r20~--| 
|-10-12-13~-13b15~--13b15r13~~~~~-10-13b15~--13b15r13~~~~~~~-10------------| 
|--------------------------------------------------------------------------| 
|--------------------------------------------------------------------------| 
|--------------------------------------------------------------------------| 
|--------------------------------------------------------------------------| 
 
|-17------------------------------------------17----------------------------| 
|----20-17------17--------------------------17--1720p17-----17--------------| 
|----------19b21--19b21r19-17--19--171919b21-----------19b21--19b21r191719--| 
|----------------------------19--19-----------------------------------------| 
|---------------------------------------------------------------------------| 
|---------------------------------------------------------------------------| 
                    G.L. 
|--------------------5-----------7-----------5-----------5----------| 
|--------------------5-----------8-----------5-----------5-----8-8--| 
|---171919b21~-------5-----9-9-9-9-9-9-------5-----5-5-5-5-5-5-8-7--| 
|-19-----------7-7-7---7-7-9-9-9---9-9-7-7-7---7-7-4-4-4---4-4-7-8--| 
|--------------7-7-7---7-7-7-7-7---7-7-7-7-7---7-7-5-5-5---5-5-8-8--| 
|--------------5-5-5---5-5-------------5-5-5---5-5------------------| 
 
|---------------------5-----------7-----------5-----------5---------| 
|---------------------5-----------8-----------5-----------5-----8-8-| 
|---------------------5-----9-9-9-9-9-9-------5-----5-5-5-5-5-5-8-8-| 
|-7sx-9-9-9-9-9-7-7-7---7-7-9-9-9---9-9-7-7-7---7-7-4-4-4---4-4-7-7-| 
|-7sx-7-7-7-7-7-7-7-7---7-7-7-7-7---7-7-7-7-7---7-7-5-5-5---5-5-8-8-| 
|-5sx-----------5-5-5---5-5-------------5-5-5---5-5-----------------| 
   D. 
|--------------------------------------------------------------------------| 
|----15-17-17b18r17~-17-15~~----13-15-15b17~-15b17r15~-13--10-12-13-13b15~-| 
|-14-------------------------12--------------------------------------------| 
|--------------------------------------------------------------------------| 
|--------------------------------------------------------------------------| 
|--------------------------------------------------------------------------| 
 
|----------------------------------------------------------------| 
|-13b15-12---10---10b12-13b15-15b17r15~----15-17b18r17~-17-15~~--| 
|----------x---12-----------------------14-----------------------| 
|----------x-----------------------------------------------------| 
|----------------------------------------------------------------| 
|----------------------------------------------------------------| 
 
|-----------------13---------------------------------------------------| 
|----13-15-15b17~----15pb17r15p13-13s1-10-12-13-13b15~-13b15r13~-10----| 
|-12----------------------------------------------------------------12-| 
|----------------------------------------------------------------------| 
|----------------------------------------------------------------------| 
|----------------------------------------------------------------------| 
 
 
 
|-------------------------------------------------1012-12b13~-12pb13-12b13~| 
|-10------1010-----1010-----1010-----1010-----1013-------------------------| 
|----12b14----12b14----12b14----12b14----12b14-----------------------------| 
|--------------------------------------------------------------------------| 
|--------------------------------------------------------------------------| 
|--------------------------------------------------------------------------| 
 
|-15--------------------------------------------12-12h13p12--12---------------| 
|----15b17-15b17r15~~-15-13----13-15------13-15------------15--13b15r13-------| 
|---------------------------14---------14------------------------------14p12--| 
|-----------------------------------------------------------------------------| 
|-----------------------------------------------------------------------------| 
|------------------------------------3----------------------------------------| 
 
|-----------------------------------------------------------| 
|------13b15-12~-10h12p10-9-10--10b12-----------------------| 
|-------------------------------------9--5b7-5--------------| 
|-1412---------------------------------------------2-2------| 
|----------------------------------------------0-2-----5~~--| 
|-----------------------------------------------------------| 
 
|---------------------------------------------------------------15-----------| 
|----------------------------101310-12-10h12p10----10-13-15b17~----15b17r15~~| 
|---------5-x-------10----10--------------------12---------------------------| 
|---7-5-7-----10h12----12----------------------------------------------------| 
|-8--------------------------------------------------------------------------| 
|----------------------------------------------------------------------------| 
 
|----------------------10--10-12p10h13p10h12p10--10-------------------| 
|-13--15b17-15sx-13b15---13--------------------13--13p12p10--12p10----| 
|----------------------------------------------------------13-----13--| 
|---------------------------------------------------------------------| 
|---------------------------------------------------------------------| 
|---------------------------------------------------------------------| 
 
|---------------------15b17-15b17r15~-12------15----------------------| 
|-10---------------10--------------------15b17--15b17r15~-1315--1315--| 
|----9-7h9p7-5-4----------------------------------------------14------| 
|----------------7----------------------------------------------------| 
|---------------------------------------------------------------------| 
|---------------------------------------------------------------------| 
 
|-1215172020b22-20b22~-20b22-20b22~~-20-19-17h19p17---| 
|--------------------------------------------------20-| 
|-----------------------------------------------------| 
|-----------------------------------------------------| 
|-----------------------------------------------------| 
|-----------------------------------------------------| 
 
|----------------------------------17------17-----17-----17-----17-20-20b22r20~~-| 
|-17h20p17--17--------17-------1720--20b22~--20b22--20b22--20b22-----------------| 
|---------19--19p17h19----17h19--------------------------------------------------| 
|-----------------------19-------------------------------------------------------| 
|--------------------------------------------------------------------------------| 
|--------------------------------------------------------------------------------| 
 
|-17------------------------------------------------------------------------| 
|---201717-------------------------------------------------------17-----17--| 
|---------19p17--19--171919pb21r19~171919-19pb21r19~~-17---19b21~--19b21----| 
|--------------19--19-------------------------------------------------------| 
|---------------------------------------------------------------------------| 
|--------------------------------------------------------0------------------| 
 
|--------------------------------------------------------| 
|-20p17-----1720p17-----1720p17-----17-----171717--17----| 
|------19b21-------19b21-------19b21--19b21------19------| 
|----------------------------------------------------19--| 
|--------------------------------------------------------| 
|--------------------------------------------------------| 
 
|-22b24~-22b24r22~-22b24r22~-22b24r22~-22b24r22~-22b24r22~-22b24r22-22b24r22| 
|---------------------------------------------------------------------------| 
|---------------------------------------------------------------------------| 
|---------------------------------------------------------------------------| 
|---------------------------------------------------------------------------| 
|---------------------------------------------------------------------------| 
 
|-22b24r22---19b21-191719--17-------------------------------------------| 
|------------------------20--1820--17-------------------------=---------| 
|--------------------------------19--19p17--19s9p7--------5-7-7b9r7~----| 
|----------x------------------------------19------10-7s5-7--------------| 
|----------x---------------------------------------------------------x--| 
|-----------------------------------------------------------------------| 
 
|-20b22-20b22-20b22-20b22-20b22-20b22-20-17-19b21-19b21-17-----22b24~~--| 
|----------------------------------------------------------x------------| 
|----------------------------------------------------------x-0----------| 
|----------------------------------------------------------x-0----------| 
|----------------------------------------------------------x------------| 
|-----------------------------------------------------------------------| 
 
|--------------------------------------------------------------------------| 
|-----15-17-17b18r17~~-17-15~~----13-15-15b17~-15b17r15~~-13-14s0-10-12-13-| 
|--14--------------------------12------------------------------------------| 
|-x------------------------------------------------------------------------| 
|--------------------------------------------------------------------------| 
|--------------------------------------------------------------------------| 
 
|---------------------------------10---------------------------------------| 
|-13b15~-13b15-12~~-10----10---12----13-13sx-----15-17-17b18r17~~-17-15~~--| 
|----------------------12----9----------------14---------------------------| 
|--------------------------------------------------------------------------| 
|--------------------------------------------------------------------------| 
|--------------------------------------------------------------------------| 
 
|---------------15--------------------------------------------------| 
|----13-15-15b17--15b17r15~~-13-15-13~----10-12-13-13b15~~-13b15-12-| 
|-12----------------------------------------------------------------| 
|-------------------------------------------------------------------| 
|-------------------------------------------------------------------| 
|-------------------------------------------------------------------| 
 
|----------------------------------------------------5------------------| 
|-9---------------13-10h12-10-8s5h8p5-------------5h7-7p5---------------| 
|----9--12b14~~~~--------------------7-5h7p5-7-5h7-------7p5---7-7-5s4--| 
|-------------------------------------------7-7-------------7p5-5-5-----| 
|-----------------------------------------------------------------------| 
|-----------------------------------------------------------------------| 
 
|------------------------------| 
|------------------------------| 
|------------------------------| 
|-7p5--------------------------| 
|----7p5-8p7-tr----------------| 
|------------35~~~~~~~~~~~~~~--| 
 
Legenda da Tablatura 
 
b- Bend 
s- Slide 
A.H- harmônico Artificial 
x  /  x- Pick Slide 
h- Hammer-on 
p- Pull-off 
x- Nota Morta 
tr- Trinado 
T- Tapping (Two Hands) 
r- Reverse Bend 
pb- Pré-Bend 
PM- Palm Mute (PM  /-Significa que voc~e tem que manter o Palm Mute até a barra.) 
 
 
_______________________________________________________ 
Contribuição: Henrique Guedes de Oliveira([email protected]) 

		  

See also:

tabs Eagles - Take It Easy tabs Dire Straits - Romeo and Juliet tabs Queen - Bohemian Rhapsody tabs Marillion - Beautiful tabs Coldplay - The Scientist tabs Eagles - Hotel California
e-chords

Other versions:

tabs Gary Moore - Still Got the Blues (ver. 2)
auto scroll beats size up size down change color hide chords drawings
tab show chords e-chords YouTube Clip e-chords hide all tabs e-chords go to top tab

share