Gary Clark Jr.

Next Door Neighbour Blues Tab

Gary Clark Jr.

Difficulty: nolevelnolevel

by jessgomes

tuner correct add songbook print version text version save to e-mail
chordsukulelecavacokeyboardtabbassdrumsharmonicsflute Guitar Pro
close

there isn't a video lesson for this song

request
chords

Next Door Neighbour Blues

  		
Tabbed by: Dapplin 
E-mail: 
The main parts to next door neighbour blues, Gary plays many variations,  
but this is my fav,  dont be a afraid to mess it about and change it up a bit, :) 
Hope you like it 
David 
Tuning:DGDGBD 

Main verse 
D|----------------------------------------------------------------------------| 
B|-----0--2---------0---------------------------------------------------------| 
G|-----0-3-3--------0---------------------------------------------------------| 
D|----------------------------------------------------------------------------| 
G|--0------------0----3-(p)0-(h)3-(p)3----------------------------------------|x3 
D|----------------------------------------------------------------------------| 

Extention to first verse 
D|---------------------------------------------------------------------------| 
B|---------------------------------------------------------------------------| 
G|---------------------------------------------------------------------------| 
D|---------------3-(br)0-----------------------------------------------------| 
G|---------------------------------------------------------------------------| 
D|--5-3-5--3-5-3-------------------------------------------------------------| 

slide: part 1(played with slide) 
D|--/5~----------0---/5~-----------------------------------------------------| 
B|--/5~----------0---/5~-----------------------------------------------------| 
G|--/5~----------0---/5~-----------------------------------------------------| 
D|--/5~----------0---/5~-----------------------------------------------------| 
G|--/5~----------0---/5~-----------------------------------------------------| 
D|--/5~----------0---/5~-----------------------------------------------------| 

Slide: Part 2 (Played with slide 
e|--/7~----------0---/5~-----------------------------------------------------| 
B|--/7~----------0---/5~-----------------------------------------------------| 
G|--/7~----------0---/5~-----------------------------------------------------| 
D|--/7~----------0---/5~-----------------------------------------------------| 
A|--/7~----------0---/5~-----------------------------------------------------| 
E|--/7~----------0---/5~-----------------------------------------------------| 

Outro 
D|---------------------------------------------------------------------------| 
B|---------------------------------------------------------------------------| 
G|---------------------------------------------------------------------------| 
D|----------------/3-/3-(p)0-------------------------------------------------| 
G|---------------------------------------------------------------------------| 
D|--5-3-5--3-5-3-------------------------------------------------------------| 
  

| /   slide up 
| \   slide down 
| h   hammer-on 
| p   pull-off 
| ~   vibrato 
| +   harmonic 
| x   Mute note 
| b   Bend 
| pb  Pre-bend 
| br  Bend release 
| pbr Pre-bend release 
| brb Bend release bend 

************************************ 
	  

Search Paypal
auto scroll beats size up size down change color hide chords drawings
tab show chords e-chords YouTube Clip e-chords hide all tabs e-chords go to top tab

share with facebook