Gary Clark Jr.

In The Evening When The Sun Goes Down

Gary Clark Jr.

tabs

by  UBIRBOMFIM

save to print version add songbook text version e-mail correct tuner
chordsukulelecavacokeyboardtabbassdrumsharmonicaflute Guitar Pro
close

there isn't a video lesson for this song

chords

In The Evening When The Sun Goes Down

	  		
Intro 

E|-------0-------0-------0-------0-------0-------0-------0-------0-| 
B|-----0-------0-------0-------0-------0-------0-------0-------0---| 
G|---1-------1-------1-------1-------1-------1-------1-------1-----| 
D|-----------------------------------------------------------------| 
A|-----------------------------------------------------------------| 
E|-0-------0-------0-------0-------0-------0-------0-------0-------| 

while in the evening 


E|-----0-----0-----2-----3-----4-----4-----0-----0---| 
B|---------------------------------------------------| 
G|---1-----1-----2-----3-----4-----4-----1-----1-----| 
D|---------------------------------------------------| 
A|---------------------------------------------------| 
E|-0-----0-----2-----3-----4-----4-----0-----0-------| 

yeah mama when the sun goes down 

E|-----4-----4-----3-----2-----0-0-0-0-------0-| 
B|-------------------------------------3-------| 
G|---4-----4-----3-----2-----1-------------1---| 
D|---------------------------------------------| 
A|---------------------------------------------| 
E|-4-----4-----3-----2-----0-------0---0-0-----| 

while in the evening 
yeah mama when the sun goes down 

E|-----5p0-----------------------------------4-----4-----3-----2-----0-| 
B|-------------0-----0-----0-----5-----5-------------------------------| 
G|-----------7-----8-----9-----5-----5-----4-----4-----3-----2-----1---| 
D|---------------------------------------------------------------------| 
A|---------------------------------------------------------------------| 
E|-5-5-----7-----8-----9-----5-----5-----4-----4-----3-----2-----0-----| 

wow ain't it so lonesome ain't it so lonesome 
when your love is not around 
when the sun goes down 

E|-----0-----4-----3-----2-----2-----2-----2---7-8-9-----------0-----0---| 
B|-------------------------------------------5---------------------------| 
G|---1-----4-----3-----2-----2-----2-----2-----7-8-9-4-3-2---1-----1-----| 
D|-------------------------------------------6---------------------------| 
A|-----------------------------------------------------------------------| 
E|-0-----4-----3-----2-----2-----2-----2-----7-7-8-9-4-3-2-0-----0-------| 

well i lay awake at night 
wow I'm just thinking to myself 

E|-----4-----2-----0---------2-2-0-3/4-4-4-4-4-3/4-4-3/4-4-3/4-4-| 
B|-------------------2p0-----------2-3-3-3-3-3-2-3-3-2-3-3-2-3-3-| 
G|---4-----2-----1---------2---2-2-------------------------------| 
D|---------------------------------------------------------------| 
A|-----------------------2-----2-2-------------------------------| 
E|-4-----2-----0-----0-------------0-0-0-0-0-0-0-0-0-0-0-0-0-0-0-| 

well i lay awake at night 
wow I'm just thinking to myself 

E|-----1-----0-0-0-----5---3-------------5---3---------| 
B|---0-------------------------------------------------| 
G|---------1---1-1-------------------------------------| 
D|-------------------------------------------------0h2-| 
A|-----------------------------------------------------| 
E|-1-----0-----0-0-5-5---5---0-3-0-3-5-5---5---0-3-----| 



E|-----0-----2-----3-----4-----0-----2-----4-----3-----2-----2-----2-----2-| 
B|-------------------------------------------------------------------------| 
G|---1-----2-----3-----4-----1-----2-----4-----3-----2-----2-----2-----2---| 
D|-------------------------------------------------------------------------| 
A|-------------------------------------------------------------------------| 
E|-0-----2-----3-----4-----0-----2-----4-----3-----2-----2-----2-----2-----| 

dont it hurt so bad 
when your lover is loving someone else 
when the sun goes down 

E|-----2-----2-----2-----2-----0-----4-----3-----2-----0-----------2-2-----0-| 
B|-------------------------------------------------------0h2p0---------0h2---| 
G|---2-----2-----2-----2-----1-----4-----3-----2-----1-----------2---2-------| 
D|---------------------------------------------------------------------------| 
A|-------------------------------------------------------------2-----2-------| 
E|-2-----2-----2-----2-----0-----4-----3-----2-----0-----0-------------------| 

Solo 

E|--3b3--3--3--3--3--3--3-------0--3--3--3-------0--3--3--3-------0--5--3-------0--| 
B|-------------------------0h2--------------0h2--------------0h2-----------0h3-----| 
G|---------------------------------------------------------------------------------| 
D|---------------------------------------------------------------------------------| 
A|---------------------------------------------------------------------------------| 
E|--0-0--0--0--0--0--0--0----------0--0--0----------0--0--0----------0--0----------| 



E|------------------------------0--3--0--------------0--7--5----------5----------------| 
B|-------------------------0h2--------------------5-----------8--8b9-----9r8--5-----5--| 
G|-------------------0-----------------------------------------------------------7-----| 
D|--------------0h2--------------------------------------------------------------------| 
A|----------------------0--0-------0---------------------------------------------------| 
E|--0--3--0--3---------------------------0--3--3---------------------------------------| 



E|--------0--------2--------3--------4--------0--------2--------4--------3--| 
B|--------------------------------------------------------------------------| 
G|-----1--------2--------3--------4--------1--------2--------4--------3-----| 
D|--------------------------------------------------------------------------| 
A|--------------------------------------------------------------------------| 
E|--0--------2--------3--------4--------0--------2--------4--------3--------| 



E|--------4--4--4--4--4--4--4--4--4--4--4--4--4--4--2--------0--------0--| 
B|-----------------------------------------------------------------------| 
G|-----2--------------------------------------------------1--------1-----| 
D|-----------------------------------------------------------------------| 
A|-----------------------------------------------------------------------| 
E|--2-----0--0--0--0--0--0--0--0--0--0--0--0--0--0--0--0--------0--------| 



E|--------3--------2--------0---------------2--2--2--| 
B|-----------------------------0h2p0-----------------| 
G|-----3--------2--------1---------------2-----2--2--| 
D|---------------------------------------------------| 
A|------------------------------------2--------2--2--| 
E|--3--------2--------0------------------------------| 

while the sun rises in the east now 
wow it sets down in the west 

E|--------0--------0--------2--------3--------4--------4--------0--------0-----| 
B|-----------------------------------------------------------------------------| 
G|-----1--------1--------2--------3--------4--------4--------1--------1--------| 
D|-----------------------------------------------------------------------------| 
A|-----------------------------------------------------------------------------| 
E|--0--------0--------2--------3--------4--------4--------0--------0-----------| 



E|--------4--------3--------2--------0/4--0--------------| 
B|-------------------------------------------3--3--3--3--| 
G|-----4--------3--------2--------1----------------------| 
D|-------------------------------------------------------| 
A|-------------------------------------------------------| 
E|--4--------3--------2--------0-------------------------| 

wow the sun rises in the east now 
wow it sets down in the west 

E|----------5--7--7--8--8-----9\0--5--5--------4--------4--------3--------2--------0--| 
B|------------------------------------------------------------------------------------| 
G|-------------7--7--8--8----------5--5-----4--------4--------3--------2--------1-----| 
D|------------------------------------------------------------------------------------| 
A|------------------------------------------------------------------------------------| 
E|--0/5--5-----7--7--8--8--9-------5--5--4--------4--------3--------2--------0--------| 

well its hard to tell its hard to tell 
which woman loves you the best 
when the sun goes down 

E|-----------4-----3-----2-----2-----2-----2---7-8-9-----------0-----4-----3-----2-----0-| 
B|-0h2p0-------------------------------------5-------------------------------------------| 
G|---------4-----3-----2-----2-----2-----2-----7-8-9-4-3-2---1-----4-----3-----2-----1---| 
D|-------------------------------------------6-------------------------------------------| 
A|-------------------------------------------7-------------------------------------------| 
E|-------4-----3-----2-----2-----2-----2-------7-8-9-4-3-2-0-----4-----3-----2-----0-----| 



E|-----------2-2-2-----0-----0-----2-----3-----4-----4-----9-----7-------4-----2-----0-| 
B|-0h2p0-------------------------------------------------------------------------------| 
G|---------2---2-2---1-----1-----2-----3-----4-----4-----9-----7-------4-----2-----1---| 
D|-------------------------------------------------------------------------------------| 
A|-------2-----2-2---------------------------------------------------------------------| 
E|-----------------0-----0-----2-----3-----4-----0-----9-----7-----3/4-----2-----0-----| 



E|--0/4--0/4--0-----0-----------3--3--0----------------0--3--3--0h3--0-----0--------| 
B|---------------3-----------2--------------------0h2-------------------3-----------| 
G|----------------------------------------------------------------------------0-----| 
D|----------------------------------------------------------------------------------| 
A|----------------------------------------------------------------------------------| 
E|---------------------5--5--------------3--0--3------------------------------------| 



E|--------0--------2--------3--------4--------0--------2--------4--------3--| 
B|--------------------------------------------------------------------------| 
G|-----1--------2--------3--------4--------1--------2--------4--------3-----| 
D|--------------------------------------------------------------------------| 
A|--------------------------------------------------------------------------| 
E|--0--------2--------3--------4--------0--------2--------4--------3--------| 

when the sun goes down 
when the sun goes down 

E|-----4-----4-----4-----4-----4-----4-----4-----2-0-----4-----3-----2-----0-| 
B|---------------------------------------------------------------------------| 
G|---2-----2-----2-----2-----2-----2-----2-----2---1---4-----3-----2-----1---| 
D|---------------------------------------------------------------------------| 
A|---------------------------------------------------------------------------| 
E|-2-----2-----2-----2-----2-----2-----2-----2-----0-4-----3-----2-----0-----| 

when the sun goes down 

E|-----4-----3-----2-0-0---0-| 
B|-----------------------3---| 
G|---4-----3-----2---1-----1-| 
D|---------------------------| 
A|---------------------------| 
E|-4-----3-----2-----0-----0-| 

more GCJ tabs soon.. 
		  

See also:

tabs Gary Clark Jr. - Nextdoor Neighbor Blues tabs Gary Clark Jr. - Things Are Changing tabs Sly and the family stone - Thank You tabs Emarosa - Helpless tabs Gary Clark Jr. - When My Train Pulls In (intro) tabs Lisa - Rally Go Round - Tv Size
e-chords

Other versions:

tabs Gary Clark Jr. - In The Evening When The Sun Goes Down
auto scroll beats size up size down change color hide chords drawings
tab show chords e-chords YouTube Clip e-chords hide all tabs e-chords go to top tab

share