Garrobos

Estoy Hambriento

Garrobos

tabs

by  EDSOOLIVEIRA

save to print version add songbook text version e-mail correct tuner
chordsukulelecavacokeyboardtabbassdrumsharmonicaflute Guitar Pro
close

there isn't a video lesson for this song

chords

Estoy Hambriento

	  		

Intro 
e|-----------------------------------------------------------------------------------------------------------| 
B|-----10--------11----------13----------15-----------10--------11----------13----------15-------------------| 
G|-5/7----7-7/10----10-10/12----12-12/14----14\-----7----7-7/10----10-10/12----12-12/14----14\---------------| 
D|-----------------------------------------------------------------------------------------------------------| 
A|-----------------------------------------------------------------------------------------------------------| 
E|-----------------------------------------------------------------------------------------------------------| 

e|------------------------------------------------------------------15~~~~-----------------------------------| 
B|---10--------11----------13----------15----------11------------13------------------------------------------| 
G|-7----7-7/10----10-10/12----12-12/14----14----10----10~~~~7/12---------------------------------------------| 
D|-----------------------------------------------------------------------------------------------------------| 
A|-----------------------------------------------------------------------------------------------------------| 
E|-----------------------------------------------------------------------------------------------------------| 

Verso 
e|-----------------------------------------------------------------------------------------------------------| 
B|-----------------------------------------------------------------------------------------------------------| 
G|--------------------------------------------------10-------------------------------------------------------| 
D|-7--77777--5/7--77777--10--12--10--10-10-10-10-10-10--10-10-10-10-10--5-5/7--77777--5--7-77777--10--12-----| 
A|-5--55555--3/5--55555--8---10--8---8--8--8--8--8--8---7--7--7--7--7---3-3/5--55555--3--5-55555--8---10-----| 
E|-----------------------------------------------------------------------------------------------------------| 

Verso  
e|-----------------------------------------------------------------------------------------------------------| 
B|-----------------------------------------------------------------------------------------------------------| 
G|----------------10-----------------------------------------------------------------------------------------| 
D|-10-10-10-10----10----10-10-10-10-10-----------------------------------------------------------------------| 
A|-8--8--8--8-----8-----7--7--7--7--7------------------------------------------------------------------------| 
E|-----------------------------------------------------------------------------------------------------------| 

Coro 
e|-----------------------------------------------------------------------------------------------------------| 
B|-----------------------------------------------------------------------------------------------------------| 
G|--------------------------------7-7-7-7-7--7--5-5-5-5-5----------------------------------------------------| 
D|-10---8-8-8-8---8---10-10-8-8---7-7-7-7-7--7--5-5-5-5-5--8-8-8-8---8---10-10-8-8--5/8-7-8-10-8-7-5---------| 
A|-10---8-8-8-8---8---8--8--8-8---5-5-5-5-5--5--3-3-3-3-3--8-8-8-8---8---8--8--8-8-------------------8-------| 
E|-8----6-6-6-6---6---6--6--6-6----------------------------6-6-6-6---6---6--6--6-6---------------------------| 

Solo 
e|-----------------------------------------------------------------------------------------------------------| 
B|-----10-------10-----10-10b11brb10-8-10-10-10b11brb10-8-10-10\------10--------10----------------10-10-10-10| 
G|-3/7----7~-3/7----7~--------------------------------------------3/7----7~-3/7----7~-12-12-12-12------------| 
D|-----------------------------------------------------------------------------------------------------------| 
A|-----------------------------------------------------------------------------------------------------------| 
E|-----------------------------------------------------------------------------------------------------------| 

Solo 
e|--------------------------------------------------------------8---------------------------------15-15-15-15| 
B|11-11-11-11-13-13-13-13--13b15-13b15-13b15br13-13p10h13--8b10---8b10br8-6----------------------------------| 
G|--------------------------------------------------------------------------7~----5-7-------10-12------------- 
D|----------------------------------------------------------------------------5h7-----10h12------------------| 
A|------------------------------------------------------------------------------------------------------------ 
E|-----------------------------------------------------------------------------------------------------------| 

Solo 
e|13-13-13-13-17-17-17-17-13-13-13-13-15-15-15-15-13-13-13-13-17-17-17-17-13-13-13-13-15-15-15-15-13-13-13-17| 
B|-----------------------------------------------------------------------------------------------------------| 
G|----------------------------------------------------------------------------------------------------------- 
D|-----------------------------------------------------------------------------------------------------------| 
A|-----------------------------------------------------------------------------------------------------------| 
E|-----------------------------------------------------------------------------------------------------------| 

Outro 
e|-----------------------------------------------------------------------------------------------------------| 
B|-----------------------------------------------------------------------------------------------------------| 
G|-777--5--777--5--777--5--777--5--777--5--777--5--777--5--10-10-10\5----------------------------------------| 
D|-xxx--x--xxx--x--xxx--x--xxx--x--xxx--x--xxx--x--xxx--x--x--x--x-\x----------------------------------------| 
A|-555--3--555--3--555--3--555--3--555--3--555--3--555--3--8--8--8-\3----------------------------------------| 
E|-----------------------------------------------------------------------------------------------------------| 

Outro 
e|-----------------------------------------------------------------------------------------------------------| 
B|-----------------------------------------------------------------------------------------------------------| 
G|-----------------------------------------------------------------------------------------------------------| 
D|-2h3-2--------3-2-3/5-3-2-3-2------5-7~-----5-7~-----5-7~-7/10-9-9\5------5-7~-----5-7~-----5-7~-7/10-9-9\5| 
A|0-------3~-3-5------------------5h7------5h7------5h7------------------5h7------5h7------5h7---------------| 
E|-----------------------------------------------------------------------------------------------------------| 

Outro 
e|5--555--3--5--3---5--555--3--5--3---5--555--3--5--3---6--6666--5--3----------------------------------------| 
B|3--333--3--3--3---3--333--3--3--3---3--333--3--3--3---3--3333--3--3----------------------------------------| 
G|------------------------------------------------------------------------------------------------------------ 
D|------------------------------------------------------------------------------------------------------------ 
A|-----------------------------------------------------------------------------------------------------------| 
E|-----------------------------------------------------------------------------------------------------------| 


************************************ 

| /   slide up 
| \   slide down 
| h   hammer-on 
| p   pull-off 
| ~   vibrato 
| +   harmonic 
| x   Mute note 
| b   Bend 
| pb  Pre-bend 
| br  Bend release 
| pbr Pre-bend release 
| brb Bend release bend 

************************************ 
		  

See also:

tabs Liquits - Cuando Apagues La Luz tabs Liquits - Chicharos Magicos tabs Pop Corn - Te quiero junto a mi tabs Pop Corn - Juliana tabs Garrobos - Estoy Hambriento tabs Akwid - Como, Cuando Y Donde
e-chords

Other versions:

tabs Garrobos - Estoy Hambriento
auto scroll beats size up size down change color hide chords drawings
tab show chords e-chords YouTube Clip e-chords hide all tabs e-chords go to top tab

share