Gang Green

Flight 911 Tab

Gang Green

Difficulty: nolevelnolevel

by Binbags

tuner correct add songbook print version text version save to e-mail
chordsukulelecavacokeyboardtabbassdrumsharmonicsflute Guitar Pro
close

there isn't a video lesson for this song

chords

Flight 911

  		Tunning E A D G B E 
  
 
 Drum and bass fade in. 
 
   Slow Pick scrape 
E--------------------| 
B---\--\-------------| 
G----\--\------------| 
D-----\--\-----------| 
A------\--\----------| 
E--------------------| 
 
 Intro 
 
 Both guitars 
E----------------------------------------| 
B----------------------------------------| 
G----------------------------------------| 
D-7-----7-/9-----9-/10----10/12------12--| 
A-5--7--5-/7--9--7-/8--10-8-/10--12--10--| 
E----5--------7--------8---------10------| 
 
  Guitar 1 
E{-------------------------------------------------------------------| 
B{-------------------------------------------------------------------| 
G{2---------------------------------2--------------------------------| 
D{2---------------2-----------------2---------------2----------------| 
A{0---------------0-----------------0---------------0----------------| 
E{-------------------------------------------------------------------| 
 {Guitar 2 
 {{------------------------------PM---------------------------------} 
E{-------------------------------------------------------------------| 
B{-------------------------------------------------------------------| 
G{-------------------------------------------------------------------| 
D{-------------------------------------------------------------------| 
A{0-0-0-0-0-0-0-0-0-0-0-0-0-0-0-0-0-0-0-0-0-0-0-0-0-0-0-0-0-0-0-0-0-0| 
E{-------------------------------------------------------------------| 
 
 Rpt 3 X 
 
 Both guitars 
E----------------------------------------| 
B----------------------------------------| 
G----------------------------------------| 
D-7-----7-/9-----9-/10----10/12------12--| 
A-5--7--5-/7--9--7-/8--10-8-/10--12--10--| 
E----5--------7--------8---------10------| 
 
 Verse 
 
  Guitar 1 
                          {----------PM-----------}  h 
E{------------------------------------------------------------| 
B{------------------------------------------------------------| 
G{------------------------------------------------------------| 
D{-------------4----(4)----2-2-2-2-2-2-2-2-2-2-2-2------------| 
A{-2----(2)----2----(2)----3-3-3-3-3-3-3-3-3-3-3-3-2-3p2-0----| 
E{-0----(0)------------------------------------------------3p-| 
 { 
 {Guitar 2                                           h 
E{------------------------------------------------------------| 
B{------------------------------------------------------------| 
G{-------------------------------------------------4-5p4p2p0--| 
D{------------------------------------------------------------| 
A{------------------------------------------------------------| 
E{------------------------------------------------------------| 
 
 Rpt 3 X 
 
                         {---------------PM-------------}   
E---------------------------------------------------------| 
B---------------------------------------------------------| 
G---------------------------------------------------------| 
D-------------4----(4)----2-2-2-2-2-2-2-2-2-2-2-2-2-2-2-2-| 
A-2----(2)----2----(2)----3-3-3-3-3-3-3-3-3-3-3-3-3-3-3-3-| 
E-0----(0)------------------------------------------------| 
 
 Rpt Intro 
 Rpt Verse 
 
 Mid section 
 
  Guitar 1 
E{-------------------------------------------------------------------| 
B{-------------------------------------------------------------------| 
G{-------------------------------------------------------------------| 
D{---------------4-/7-/9--2--5-/7-/9----------------(9)--------------| 
A{-2-----(2)-----2-/5-/7--0--3-/5-/7----------------(7)--------------| 
E{-0-----(0)---------------------------------------------------------| 
 {Guitar 2 
 {                                {--------------PM-------------} 
E{-------------------------------------------------------------------| 
B{-------------------------------------------------------------------| 
G{-------------------------------------------------------------------| 
D{-9-----(9)-----4-/7-/9--2--5-/7------------------------------------| 
A{-7-----(7)-----2-/5-/7--0--3-/5--7-7-7-7-7-7-7-7-7-7-7-7-7-7-7-----| 
E{---------------------------------0-0-0-0-0-0-0-0-0-0-0-0-0-0-0-----| 
 
 Riff A 
 
  Guitar 1 
E{-----------------------------------------------------| 
B{-----------------------------------------------------| 
G{-----------------------------------------------------| 
D{-4-/7-/9--2--5-/7-/9-------------(9)-----------------| 
A{-2-/5-/7--0--3-/5-/7-------------(7)-----------------| 
E{-----------------------------------------------------| 
 {Guitar 2 
 {                  {--------------PM-------------} 
E{-----------------------------------------------------| 
B{-----------------------------------------------------| 
G{-----------------------------------------------------| 
D{-4-/7-/9--2--5-/7------------------------------------| 
A{-2-/5-/7--0--3-/5--7-7-7-7-7-7-7-7-7-7-7-7-7-7-7-----| 
E{-------------------0-0-0-0-0-0-0-0-0-0-0-0-0-0-0-----| 
 
                                               Rpt 2 X 
 
E---------------------| 
B---------------------| 
G---------------------| 
D-4-/7-/9----2--5---/-| 
A-2-/5-/7----0--3---/-| 
E---------------------| 
 
E----------------------------------------| 
B----------------------------------------| 
G----------------------------------------| 
D-7-----7-/9-----9-/10----10/12------12--| 
A-5--7--5-/7--9--7-/8--10-8-/10--12--10--| 
E----5--------7--------8---------10------| 
 
  Guitar 1 
E{-------------------------------| 
B{-------------------------------| 
G{-------------------------------| 
D{-9-------------(9)-------------| 
A{-7-------------(7)-------------| 
E{-------------------------------| 
 { Guitar 2 
 {{--------------PM-------------} 
E{-------------------------------| 
B{-------------------------------| 
G{-------------------------------| 
D{-------------------------------| 
A{-7-7-7-7-7-7-7-7-7-7-7-7-7-7-7-| 
E{-0-0-0-0-0-0-0-0-0-0-0-0-0-0-0-| 
 
 Rpt Riff A 
 
E---------------------| 
B---------------------| 
G---------------------| 
D-4-/7-/9----2--5---/-| 
A-2-/5-/7----0--3---/-| 
E---------------------| 
 
E----------------------------------------| 
B----------------------------------------| 
G----------------------------------------| 
D-7-----7-/9-----9-/10----10/12------12--| 
A-5--7--5-/7--9--7-/8--10-8-/10--12--10--| 
E----5--------7--------8---------10------| 
 
 Rpt Verse 
 Rpt mid section 
 Rpt Intro 
 
 Ending 
 
E----| 
B----| 
G----| 
D-2--| 
A-0--| 
E----| 
 
 
 
END 
 
 

	  

auto scroll beats size up size down change color hide chords drawings
tab show chords e-chords YouTube Clip e-chords hide all tabs e-chords go to top tab

share with facebook

Search Paypal