Games

Zora Domain (The Legend Of Zelda)

Games

tabs Easy easy

by  DIEGOMAC1

save to print version add songbook text version e-mail correct tuner
chordsukulelecavacokeyboardtabbassdrumsharmonicaflute Guitar Pro
close

there isn't a video lesson for this song

chords

Zora Domain (The Legend Of Zelda)

	  		(Nintendo 64) 

toque de preferÍncia em corda de nylon: 
 
  e-------------5-2----------------|-------------5-2----------------| 
  B-----------3---------3----------|-----3---3-----------3----------| 
  G---------4-------------------4--|-------4---4-----------------4--| 
  D--------------------------------|--------------------------------| 
  A--------------------------------|--------------------------------| 
  E--------------------------------|--------------------------------| 
 
  e---------0-3---0----------------|---------------0-------0-2-3-2-0| 
  B-------1------------------------|-----0-1-0-1-3-----1-3----------| 
  G--------------------------------|---2----------------------------| 
  D--------------------------------|--------------------------------| 
  A--------------------------------|--------------------------------| 
  E--------------------------------|--------------------------------| 
 
  e-2-----------------------5-2----|-----------------7-----------5-7| 
  B-----------------------3--------|-3-------------------------8----| 
  G---------------------4---------4|--------------------------------| 
  D--------------------------------|--------------------------------| 
  A--------------------------------|--------------------------------| 
  E--------------------------------|--------------------------------| 
 
  |--3--| 
  e--------------------------------|---------12--------7-5---5--7---| 
  B-7-----------5------------------|-----------------------8-------7| 
  G-------7------------------------|--------------------------------| 
  D--------------------------------|--------------------------------| 
  A--------------------------------|--------------------------------| 
  E--------------------------------|--------------------------------| 
 
  e---------------------------2----|-----2-------2-------2-----2----| 
  B-----------------------0-3------|-0-3-----0-3-----0-3---0-3-----0| 
  G-7-------------------2---------2|-------2-------2----------------| 
  D--------------------------------|--------------------------------| 
  A--------------------------------|--------------------------------| 
  E--------------------------------|--------------------------------| 
 
  |--3--| |--3--| |--3--| 
  e-----0-7------------------------|-----10--7------------------------| 
  B-1------------------------------|------------8-----8--------7-----7| 
  G--------------------------------|---------------9-----9--------9---| 
  D--------------------------------|------------------------10--------| 
  A--------------------------------|----------------------------------| 
  E--------------------------------|----------------------------------| 
 
  32nd notes 
  e--------------------------------|---------2-5-------2------------| 
  B-5753---------------------------|-------3-------------3----------| 
  G--------------------------------|-----4-----------------2--------| 
  D--------------------------------|--------------------------------| 
  A--------------------------------|--------------------------------| 
  E--------------------------------|--------------------------------| 
 
 
  |--3--| 
  e---------7----------------------|---7----------------------------| 
  B-------5-----7-5----------------|-----8---7----------------------| 
  G----4---------------------------|-------9---7-----------7--------| 
  D--------------------------------|-------------7-----7-9---9------| 
  A--------------------------------|--------------------------------| 
  E--------------------------------|--------------------------------| 
 
  REPEAT THESE 4 MEASURES 
 
  e-5-------2-5-----5-----2---5----|-4-------0-4---0-------0-4-----0| 
  B-------3-------------3----------|-------2-------------2----------| 
  G-----4---------4---4------------|-----3-------------3------------| 
  D--------------------------------|--------------------------------| 
  A--------------------------------|--------------------------------| 
  E--------------------------------|--------------------------------| 
 
  e-3-------0-3---------0---0-3----|---2-------2-----2---------2----| 
  B-------1---------------1--------|-------0-1-----------0-1-3------| 
  G-----2---------2----------------|-----2---------2---2------------| 
  D--------------------------------|--------------------------------| 
  A--------------------------------|--------------------------------| 
  E--------------------------------|--------------------------------| 
 
depois que adicionarem esta tablatura eu mando a mid 
para maiores esclarecimentos. 
		  

auto scroll beats size up size down change color hide chords drawings
tab show chords e-chords YouTube Clip e-chords hide all tabs e-chords go to top tab

share