Game of Thrones

home > Game of Thrones

The Rains Of Castamere Tab

Game of Thrones

Difficulty: BeginnerBeginner

by ubirbomfim

tuner correct add songbook print version text version save to e-mail
chordsukulelecavacokeyboardtabbassdrumsharmonicsflute Guitar Pro
chords

The Rains Of Castamere

	  E|-----1-----0-----1--3--0-----3--1--0-----0-----5--5--6--3--------5--6--3-| 
B|-----------------------2--------------3--1-------------------------------| 
G|--2-----2--0--2--------2--2--------0-----0--5--------------5--5-----0----| 
D|-----0-----------0--2--2-----2--0--------2-----3--5-----2--------3-----2-| 
A|-----------------------------------------3--------------------0----------| 
E|-------------------------------------------------------------------------| 


E|-----6--5--3--1--0-------------1-----0--------1--3--0-----3--1--0-----0--| 
B|----------------------------------------------------2--------------3--1--| 
G|--5--------------0-------2--2-----2--0--2--2--------2--2--------------0--| 
D|-----0--3--2--0----------------0--------------0--2--2-----2--0--2--0--2--| 
A|----------------------------0--------------0--------------------------3--| 
E|-------------------------------------------------------------------------| 


E|-----5--6--3-----5--6--3-----6--5--3--1----------0--1-----1--0-----------| 
B|-----------------------------------------3-------------3--------3--------| 
G|--5-----------5-----------5--------------2----2--------------------2--2--| 
D|-----3--0--2-----3--0--2-----0--3--2--0--0----------0-----0--2-----------| 
A|-------------------------------------------------3-----------------0--0--| 
E|-------------------------------------------------------------------------| 

E|--3--1-----1--0--------0--1-----5--5--3--------1-----0--------| 
B|--------3-----1--------------3-----------3-----------------3--| 
G|--2-----------2-----2--0--------------------2-----2----2---2--| 
D|-----0-----0--2-----------0--------3--2--0-----3-----2-----0--| 
A|--------------2-----------------------------------------------| 
E|--------------------------------------------------------------| 


E|-----0--1-----5--5--3--------1------------------| 
B|-----------3-----------3-----------5s6----3-----| 
G|--2--0--------------------2-----2---------2-----| 
D|--------0--------3--2--------3------------0-----| 
A|-----------------------0------------------0-----| 
E|------------------------------------------------| 
	  

Search Paypal
auto scroll beats size up size down change color hide chords drawings
tab show chords e-chords YouTube Clip e-chords hide all tabs e-chords go to top tab