Game of Thrones

A Lannister Always Pays His Debts Tab

Game of Thrones

Difficulty: ExpertExpert

by gustsilva

tuner correct add songbook print version text version save to e-mail
chordsukulelecavacokeyboardtabbassdrumsharmonicsflute Guitar Pro
close

there isn't a video lesson for this song

request
chords

A Lannister Always Pays His Debts

  		 
E|----------0---1---| 
B|------------------| 
G|-----2------------| x5 
D|--0---------------| 
A|------------------| 
E|------------------| 
 

 
E|--------0---------------3---5---------3---5--------------------------| 
B|-----1-----1-------1--------------1--------------3-------3-----------| 
G|--2--------------------------------------------------2-------2----0--| 
D|---------------------------------------------------------------------| 
A|-------------------------------------------------------------0-------| 
E|----------------1--------------1--------------3----------------------| 
 

 
E|-----1-----0-----1--3----0------3--1--0------0-----5-----3-------5--6--3-| 
B|-------------------------2---------------3---1---------------------------| 
G|--2-----2-----2----------2---2---------------0--5-----5------5------0----| 
D|-----0-----------0--2----2------2--0--2------2-----3-----2-------3-----2-| 
A|-----------0-------------0-------------------3---------------------------| 
E|-------------------------------------------------------------------------| 
 

 
E|-----6--5--3--1---0------0~1-------1--0--------------0~1------1--1~0--| 
B|------------------2-----------3-----------3---------------3-----------| 
G|--5--0------------2---2-----------------------2---2-------------------| 
D|--------3--2--0---2-----------0-------2-------------------0-----------| 
A|------------------0------3--------------------0------3-----------0----| 
E|----------------------------------------------------------------------| 
 

 
E|-----0~1--------5--5--3-------3---1---0---------| 
B|-----------3--------------3----------------3----| 
G|--2----------------------------------------2----| 
D|-------------------------------------------0----| 
A|-----1----------------------------1---0---------| 
E|-------------------3----------------------------| 
 

 
E|--0~1--------1--0--------------0~1-----------1---1~0--| 
B|--------3----------3-------------------3--------------| 
G|-----------------------2---2--------------------------| 
D|--------0-------2----------------------0--------------| 
A|--3--------------------0-------3-----------------0----| 
E|------------------------------------------------------| 
 

 
E|----0~1--------5---5----3-------3----1---------5-----3--0--1----------| 
B|----------3-----------------3------------3-----------------------3----| 
G|-2---------------------------------------------------------------2----| 
D|-----------------------------------------------------------------0----| 
A|----1--------------------------------1---------0----------------------| 
E|-------------------3--------------------------------------------------| 
	  

Search Paypal
auto scroll beats size up size down change color hide chords drawings
tab show chords e-chords YouTube Clip e-chords hide all tabs e-chords go to top tab

share with facebook