Gallows

Wristslitter

Gallows

tabs

by  EDSOOLIVEIRA

save to print version add songbook text version e-mail correct tuner
chordsukulelecavacokeyboardtabbassdrumsharmonicaflute Guitar Pro
close

there isn't a video lesson for this song

chords

Wristslitter

	  		

INTRO/Verse: 

|------------------------| 
|------------------------| 
|------------------------| 
|--33333333-3333-2-33-0--| X4 
|--22222222-0000-2-33-0--| 
|----------------2-33-0--| 

Chorus: (Find a better way...) 

|-------------------------| 
|-------------------------| 
|---77777777-7777-8888----| X3 
|---55555555-6666-6666----| 
|---55555555-6666-6666----| 
|---55555555-6666-6666----| 

|---------------| 
|---------------| 
|---------------| 
|---3~---1~-----| 
|---3~---1~-----| 
|---3~---1~-----| 

INTRO/Verse: 

|------------------------| 
|------------------------| 
|------------------------| 
|--33333333-3333-2-33-0--| X4 
|--22222222-0000-2-33-0--| 
|----------------2-33-0--| 

Chorus 2: (Find a better way...) 

|-------------------------| 
|-------------------------| 
|---77777777-7777-8888----| X4 
|---55555555-6666-6666----| 
|---55555555-6666-6666----| 
|---55555555-6666-6666----| 


Bridge: 

|----------------------------|-----------| 
|----------------------------|-----------| 
|-----------0-------0--------|-----------| 
|-4--0----4---4---4---4---4--|-4--0--3~--| 
|-4--0--3-------3-------3----|-4--0--3~--| 
|-4--0-----------------------|-4--0--3~--| 
                        X3 

INTRO/Verse: 

|------------------------| 
|------------------------| 
|------------------------| 
|--33333333-3333-2-33-0--| X4 
|--22222222-0000-2-33-0--| 
|----------------2-33-0--| 

Chorus: (Find a better way...) 

|-------------------------| 
|-------------------------| 
|---77777777-7777-8888----| X3 
|---55555555-6666-6666----| 
|---55555555-6666-6666----| 
|---55555555-6666-6666----| 

|---------------| 
|---------------| 
|---------------| 
|---3~---1~-----| 
|---3~---1~-----| 
|---3~---1~-----| 
		  

See also:

tabs The Cure - Boys Don't Cry tabs Chumbawamba - On Ebay tabs Bowling For Soup - Almost (intro) tabs The Cure - Boys Dont Cry (ver. 3) tabs Box Car Racer - Tiny Voices tabs Box Car Racer - Watch The World
e-chords

Other versions:

tabs Gallows - Wristslitter
auto scroll beats size up size down change color hide chords drawings
tab show chords e-chords YouTube Clip e-chords hide all tabs e-chords go to top tab

share