Gabe Bondoc

Mission

Gabe Bondoc

tabs

by  CARLLUZ

save to print version add songbook text version e-mail correct tuner
chordsukulelecavacokeyboardtabbassdrumsharmonicaflute Guitar Pro
close

there isn't a video lesson for this song

chords

Mission

	  		
Intro 
e|0---0-0---0-0---0-0-0-0-|0---0-0---0-0---0-0-0-0-|0---0-0---0-0---0-0-0-0-|0---0-0---0-0---0-0-0-0-| 
B|0---0-0---0-0---0-0-0-0-|0---0-0---0-0---0-0-0-0-|0---0-0---0-0---0-0-0-0-|0---0-0---0-0---0-0-0-0-| 
G|2---2-2---2-2---2-2-2-2-|4---4-4---4-4---4-4-4-4-|4---4-4---4-4---4-4-4-4-|8---8-8---8-8---8-8-8-8-| 
D|2---2-2---2-2---2-2-2-2-|4---4-4---4-4---4-4-4-4-|4---4-4---4-4---4-4-4-4-|9---9-9---9-9---9-9-9-9-| 
A|0---0-0---0-0---0-0-0-0-|2---2-2---2-2---2-2-2-2-|x---x-x---x-x---x-x-x-x-|x---x-x---x-x---x-x-x-x-| 
E|------------------------|------------------------|4---4-4---4-4---4-4-4-4-|9---9-9---9-9---9-9-9-9-| 

e|0---0-0---0-0---0-0-0-0-|0---0-0---0-0---0-0-0-0-|0---0-0---0-0---0-0-0-0-|0---0-0-----0-0-0-0-0-0-| 
B|0---0-0---0-0---0-0-0-0-|0---0-0---0-0---0-0-0-0-|0---0-0---0-0---0-0-0-0-|0---0-0-----0-0-0-0-0-0-| 
G|2---2-2---2-2---2-2-2-2-|4---4-4---4-4---4-4-4-4-|4---4-4---4-4---4-4-4-4-|8---8-8-----8-8-8-8-8-8-| 
D|2---2-2---2-2---2-2-2-2-|4---4-4---4-4---4-4-4-4-|4---4-4---4-4---4-4-4-4-|9---9-9-----9-9-9-9-9-9-| 
A|0---0-0---0-0---0-0-0-0-|2---2-2---2-2---2-2-2-2-|x---x-x---x-x---x-x-x-x-|x---x-x-----x-x-x-x-x-x-| 
E|------------------------|------------------------|4---4-4---4-4---4-4-4-4-|9---9-9-----9-9-9-9-9-9-| 

Verse 
e|0---0-0---0-0---0-0-0-0-|0---0-0---0-0---0-0-0-0-|0---0-0---0-0---0-0-0-0-|0-0---------------------| 
B|0---0-0---0-0---0-0-0-0-|0---0-0---0-0---0-0-0-0-|0---0-0---0-0---0-0-0-0-|0-0---------------------| 
G|2---2-2---2-2---2-2-2-2-|4---4-4---4-4---4-4-4-4-|4---4-4---4-4---4-4-4-4-|8-8---------------------| 
D|2---2-2---2-2---2-2-2-2-|4---4-4---4-4---4-4-4-4-|4---4-4---4-4---4-4-4-4-|9-9---------------------| 
A|0---0-0---0-0---0-0-0-0-|2---2-2---2-2---2-2-2-2-|x---x-x---x-x---x-x-x-x-|x-x---------------------| 
E|------------------------|------------------------|4---4-4---4-4---4-4-4-4-|9-9---------------------| 

e|0---0-0---0-0---0-0-0-0-|0---0-0---0-0---0-0-0-0-|0---0-0---0-0---0-0-0-0-|------0-----0---0-0-0-0-| 
B|0---0-0---0-0---0-0-0-0-|0---0-0---0-0---0-0-0-0-|0---0-0---0-0---0-0-0-0-|----------0-0---0-0-0-0-| 
G|2---2-2---2-2---2-2-2-2-|4---4-4---4-4---4-4-4-4-|4---4-4---4-4---4-4-4-4-|--------8---8---8-8-8-8-| 
D|2---2-2---2-2---2-2-2-2-|4---4-4---4-4---4-4-4-4-|4---4-4---4-4---4-4-4-4-|------------9---9-9-9-9-| 
A|0---0-0---0-0---0-0-0-0-|2---2-2---2-2---2-2-2-2-|x---x-x---x-x---x-x-x-x-|------------x---x-x-x-x-| 
E|------------------------|------------------------|4---4-4---4-4---4-4-4-4-|9---9-------9---9-9-9-9-| 

Pre-Chorus 
e|0-----------0-----------|0-----------0-----------| 
B|0-----------0-----------|0-----------0-----------| 
G|2-----------4-----------|2-----------4-----------| 
D|2-----------4-----------|2-----------4-----------| 
A|x-----------2-----------|x-----------2-----------| 
E|2-----------x-----------|2-----------x-----------| 

Verse 
e|0---0-0---0-0---0-0-0-0-|0---0-0---0-0---0-0-0-0-|0---0-0---0-0---0-0-0-0-|0-0---------------------| 
B|0---0-0---0-0---0-0-0-0-|0---0-0---0-0---0-0-0-0-|0---0-0---0-0---0-0-0-0-|0-0---------------------| 
G|2---2-2---2-2---2-2-2-2-|4---4-4---4-4---4-4-4-4-|4---4-4---4-4---4-4-4-4-|8-8---------------------| 
D|2---2-2---2-2---2-2-2-2-|4---4-4---4-4---4-4-4-4-|4---4-4---4-4---4-4-4-4-|9-9---------------------| 
A|0---0-0---0-0---0-0-0-0-|2---2-2---2-2---2-2-2-2-|x---x-x---x-x---x-x-x-x-|x-x---------------------| 
E|------------------------|------------------------|4---4-4---4-4---4-4-4-4-|9-9---------------------| 

e|0---0-0---0-0---0-0-0-0-|0---0-0---0-0---0-0-0-0-|0---0-0---0-0---0-0-0-0-|------0-----0---0-0-0-0-| 
B|0---0-0---0-0---0-0-0-0-|0---0-0---0-0---0-0-0-0-|0---0-0---0-0---0-0-0-0-|----------0-0---0-0-0-0-| 
G|2---2-2---2-2---2-2-2-2-|4---4-4---4-4---4-4-4-4-|4---4-4---4-4---4-4-4-4-|--------8---8---8-8-8-8-| 
D|2---2-2---2-2---2-2-2-2-|4---4-4---4-4---4-4-4-4-|4---4-4---4-4---4-4-4-4-|------------9---9-9-9-9-| 
A|0---0-0---0-0---0-0-0-0-|2---2-2---2-2---2-2-2-2-|x---x-x---x-x---x-x-x-x-|------------x---x-x-x-x-| 
E|------------------------|------------------------|4---4-4---4-4---4-4-4-4-|9---9-------9---9-9-9-9-| 

Pre-Chorus 
e|0-----------0-----------|0-----------0-----------| 
B|0-----------0-----------|0-----------0-----------| 
G|2-----------4-----------|2-----------4-----------| 
D|2-----------4-----------|2-----------4-----------| 
A|x-----------2-----------|x-----------2-----------| 
E|2-----------x-----------|2-----------x-----------| 

Chorus 
e|0-----------------------|------------------------|0---0-0---0-0---0-0-0-0-|0---0-0---0-0---0-0-0-0-| 
B|0-----------------------|------------------------|0---0-0---0-0---0-0-0-0-|0---0-0---0-0---0-0-0-0-| 
G|1-----------------------|------------------------|4---4-4---4-4---4-4-4-4-|8---8-8---8-8---8-8-8-8-| 
D|2-----------------------|------------------------|4---4-4---4-4---4-4-4-4-|9---9-9---9-9---9-9-9-9-| 
A|2-----------------------|------------------------|x---x-x---x-x---x-x-x-x-|x---x-x---x-x---x-x-x-x-| 
E|0-----------------------|------------0---2---3---|4---4-4---4-4---4-4-4-4-|9---9-9---9-9---9-9-9-9-| 

e|0-----------------------|0-----------------------|0-----------------------|0-----------------------| 
B|0-----------------------|0-----------------------|0-----------------------|0-----------------------| 
G|2-----------------------|4-----------------------|2-----------------------|4-----------------------| 
D|2-----------------------|4-----------------------|2-----------------------|4-----------------------| 
A|x-----------------------|x-----------------------|0-----------------------|2-----------------------| 
E|2-----------------------|4-----------------------|x-----------------------|x-----------------------| 

Verse 
e|0---0-0---0-0---0-0-0-0-|0---0-0---0-0---0-0-0-0-|0---0-0---0-0---0-0-0-0-|0-0---------------------| 
B|0---0-0---0-0---0-0-0-0-|0---0-0---0-0---0-0-0-0-|0---0-0---0-0---0-0-0-0-|0-0---------------------| 
G|2---2-2---2-2---2-2-2-2-|4---4-4---4-4---4-4-4-4-|4---4-4---4-4---4-4-4-4-|8-8---------------------| 
D|2---2-2---2-2---2-2-2-2-|4---4-4---4-4---4-4-4-4-|4---4-4---4-4---4-4-4-4-|9-9---------------------| 
A|0---0-0---0-0---0-0-0-0-|2---2-2---2-2---2-2-2-2-|x---x-x---x-x---x-x-x-x-|x-x---------------------| 
E|------------------------|------------------------|4---4-4---4-4---4-4-4-4-|9-9---------------------| 

e|0---0-0---0-0---0-0-0-0-|0---0-0---0-0---0-0-0-0-|0---0-0---0-0---0-0-0-0-|------0-----0---0-0-0-0-| 
B|0---0-0---0-0---0-0-0-0-|0---0-0---0-0---0-0-0-0-|0---0-0---0-0---0-0-0-0-|----------0-0---0-0-0-0-| 
G|2---2-2---2-2---2-2-2-2-|4---4-4---4-4---4-4-4-4-|4---4-4---4-4---4-4-4-4-|--------8---8---8-8-8-8-| 
D|2---2-2---2-2---2-2-2-2-|4---4-4---4-4---4-4-4-4-|4---4-4---4-4---4-4-4-4-|------------9---9-9-9-9-| 
A|0---0-0---0-0---0-0-0-0-|2---2-2---2-2---2-2-2-2-|x---x-x---x-x---x-x-x-x-|------------x---x-x-x-x-| 
E|------------------------|------------------------|4---4-4---4-4---4-4-4-4-|9---9-------9---9-9-9-9-| 

Pre-Chorus 
e|0-----------0-----------|0-----------0-----------| 
B|0-----------0-----------|0-----------0-----------| 
G|2-----------4-----------|2-----------4-----------| 
D|2-----------4-----------|2-----------4-----------| 
A|x-----------2-----------|x-----------2-----------| 
E|2-----------x-----------|2-----------x-----------| 

Chorus 
e|0-----------------------|------------------------|0---0-0---0-0---0-0-0-0-|0---0-0---0-0---0-0-0-0-| 
B|0-----------------------|------------------------|0---0-0---0-0---0-0-0-0-|0---0-0---0-0---0-0-0-0-| 
G|1-----------------------|------------------------|4---4-4---4-4---4-4-4-4-|8---8-8---8-8---8-8-8-8-| 
D|2-----------------------|------------------------|4---4-4---4-4---4-4-4-4-|9---9-9---9-9---9-9-9-9-| 
A|2-----------------------|------------------------|x---x-x---x-x---x-x-x-x-|x---x-x---x-x---x-x-x-x-| 
E|0-----------------------|------------0---2---3---|4---4-4---4-4---4-4-4-4-|9---9-9---9-9---9-9-9-9-| 

e|0-----------------------|0-----------------------|0-----------------------|0-----------------------| 
B|0-----------------------|0-----------------------|0-----------------------|0-----------------------| 
G|2-----------------------|4-----------------------|2-----------------------|4-----------------------| 
D|2-----------------------|4-----------------------|2-----------------------|4-----------------------| 
A|x-----------------------|x-----------------------|0-----------------------|2-----------------------| 
E|2-----------------------|4-----------------------|x-----------------------|x-----------------------| 

e|0-----------------------|------------------------|0---0-0---0-0---0-0-0-0-|0---0-0---0-0---0-0-0-0-| 
B|0-----------------------|------------------------|0---0-0---0-0---0-0-0-0-|0---0-0---0-0---0-0-0-0-| 
G|1-----------------------|------------------------|4---4-4---4-4---4-4-4-4-|8---8-8---8-8---8-8-8-8-| 
D|2-----------------------|------------------------|4---4-4---4-4---4-4-4-4-|9---9-9---9-9---9-9-9-9-| 
A|2-----------------------|------------------------|x---x-x---x-x---x-x-x-x-|x---x-x---x-x---x-x-x-x-| 
E|0-----------------------|------------0---2---3---|4---4-4---4-4---4-4-4-4-|9---9-9---9-9---9-9-9-9-| 

e|0-----------------------|0-----------------------|0-----------------------|0-----------------------| 
B|0-----------------------|0-----------------------|0-----------------------|0-----------------------| 
G|2-----------------------|4-----------------------|2-----------------------|4-----------------------| 
D|2-----------------------|4-----------------------|2-----------------------|4-----------------------| 
A|x-----------------------|x-----------------------|0-----------------------|2-----------------------| 
E|2-----------------------|4-----------------------|x-----------------------|x-----------------------| 

Instrumental 
e|0---0-0---0-0---0-0-0-0-|0---0-0---0-0---0-0-0-0-|0---0-0---0-0---0-0-0-0-|0---0-0---0-0---0-0-0-0-| 
B|0---0-0---0-0---0-0-0-0-|0---0-0---0-0---0-0-0-0-|0---0-0---0-0---0-0-0-0-|0---0-0---0-0---0-0-0-0-| 
G|2---2-2---2-2---2-2-2-2-|4---4-4---4-4---4-4-4-4-|4---4-4---4-4---4-4-4-4-|8---8-8---8-8---8-8-8-8-| 
D|2---2-2---2-2---2-2-2-2-|4---4-4---4-4---4-4-4-4-|4---4-4---4-4---4-4-4-4-|9---9-9---9-9---9-9-9-9-| 
A|0---0-0---0-0---0-0-0-0-|2---2-2---2-2---2-2-2-2-|x---x-x---x-x---x-x-x-x-|x---x-x---x-x---x-x-x-x-| 
E|------------------------|------------------------|4---4-4---4-4---4-4-4-4-|9---9-9---9-9---9-9-9-9-| 

e|0---0-0---0-0---0-0-0-0-|0---0-0---0-0---0-0-0-0-|0---0-0---0-0---0-0-0-0-|0---0-0-----0-0-0-0-0-0-| 
B|0---0-0---0-0---0-0-0-0-|0---0-0---0-0---0-0-0-0-|0---0-0---0-0---0-0-0-0-|0---0-0-----0-0-0-0-0-0-| 
G|2---2-2---2-2---2-2-2-2-|4---4-4---4-4---4-4-4-4-|4---4-4---4-4---4-4-4-4-|8---8-8-----8-8-8-8-8-8-| 
D|2---2-2---2-2---2-2-2-2-|4---4-4---4-4---4-4-4-4-|4---4-4---4-4---4-4-4-4-|9---9-9-----9-9-9-9-9-9-| 
A|0---0-0---0-0---0-0-0-0-|2---2-2---2-2---2-2-2-2-|x---x-x---x-x---x-x-x-x-|x---x-x-----x-x-x-x-x-x-| 
E|------------------------|------------------------|4---4-4---4-4---4-4-4-4-|9---9-9-----9-9-9-9-9-9-| 
Pre-Chorus 
e|0-----------0-----------|0-----0-----0-----0-----| 
B|0-----------0-----------|0-----0-----0-----1-----| 
G|2-----------4-----------|2-----4-----2-----2-----| 
D|2-----------4-----------|2-----4-----2-----2-----| 
A|x-----------2-----------|x-----x-----0-----0-----| 
E|2-----------x-----------|2-----4-----------------| 

Chorus 
e|0-----------------------|------------------------|0---0-0---0-0---0-0-0-0-|0---0-0---0-0---0-0-0-0-| 
B|0-----------------------|------------------------|0---0-0---0-0---0-0-0-0-|0---0-0---0-0---0-0-0-0-| 
G|1-----------------------|------------------------|4---4-4---4-4---4-4-4-4-|8---8-8---8-8---8-8-8-8-| 
D|2-----------------------|------------------------|4---4-4---4-4---4-4-4-4-|9---9-9---9-9---9-9-9-9-| 
A|2-----------------------|------------------------|x---x-x---x-x---x-x-x-x-|x---x-x---x-x---x-x-x-x-| 
E|0-----------------------|------------0---2---3---|4---4-4---4-4---4-4-4-4-|9---9-9---9-9---9-9-9-9-| 

e|0-----------------------|0-----------------------|0-----------------------|0-----------------------| 
B|0-----------------------|0-----------------------|0-----------------------|0-----------------------| 
G|2-----------------------|4-----------------------|2-----------------------|4-----------------------| 
D|2-----------------------|4-----------------------|2-----------------------|4-----------------------| 
A|x-----------------------|x-----------------------|0-----------------------|2-----------------------| 
E|2-----------------------|4-----------------------|x-----------------------|x-----------------------| 

e|0-----------------------|------------------------|0---0-0---0-0---0-0-0-0-|0---0-0---0-0---0-0-0-0-| 
B|0-----------------------|------------------------|0---0-0---0-0---0-0-0-0-|0---0-0---0-0---0-0-0-0-| 
G|1-----------------------|------------------------|4---4-4---4-4---4-4-4-4-|8---8-8---8-8---8-8-8-8-| 
D|2-----------------------|------------------------|4---4-4---4-4---4-4-4-4-|9---9-9---9-9---9-9-9-9-| 
A|2-----------------------|------------------------|x---x-x---x-x---x-x-x-x-|x---x-x---x-x---x-x-x-x-| 
E|0-----------------------|------------0---2---3---|4---4-4---4-4---4-4-4-4-|9---9-9---9-9---9-9-9-9-| 

e|0-----------------------|0-----------------------|0-----------------------|0-----------------------| 
B|0-----------------------|0-----------------------|0-----------------------|0-----------------------| 
G|2-----------------------|4-----------------------|2-----------------------|4-----------------------| 
D|2-----------------------|4-----------------------|2-----------------------|4-----------------------| 
A|x-----------------------|x-----------------------|0-----------------------|2-----------------------| 
E|2-----------------------|4-----------------------|x-----------------------|x-----------------------| 

Outro 
e|0-----------------------|------------------------|0---0-0---0-0---0-0-0-0-|0---0-0---0-0---0-0-0-0-| 
B|0-----------------------|------------------------|0---0-0---0-0---0-0-0-0-|0---0-0---0-0---0-0-0-0-| 
G|1-----------------------|------------------------|4---4-4---4-4---4-4-4-4-|8---8-8---8-8---8-8-8-8-| 
D|2-----------------------|------------------------|4---4-4---4-4---4-4-4-4-|9---9-9---9-9---9-9-9-9-| 
A|2-----------------------|------------------------|x---x-x---x-x---x-x-x-x-|x---x-x---x-x---x-x-x-x-| 
E|0-----------------------|------------0---2---3---|4---4-4---4-4---4-4-4-4-|9---9-9---9-9---9-9-9-9-| 

e|0-----------------------|0-----------------------|0-----------------------|0-----------------------| 
B|0-----------------------|0-----------------------|0-----------------------|0-----------------------| 
G|2-----------------------|4-----------------------|2-----------------------|4-----------------------| 
D|2-----------------------|4-----------------------|2-----------------------|4-----------------------| 
A|x-----------------------|x-----------------------|0-----------------------|2-----------------------| 
E|2-----------------------|4-----------------------|x-----------------------|x-----------------------| 

e|0-----------------------|------------------------|0---0-0---0-0---0-0-0-0-|0---0-0---0-0---0-0-0-0-| 
B|0-----------------------|------------------------|0---0-0---0-0---0-0-0-0-|0---0-0---0-0---0-0-0-0-| 
G|1-----------------------|------------------------|4---4-4---4-4---4-4-4-4-|8---8-8---8-8---8-8-8-8-| 
D|2-----------------------|------------------------|4---4-4---4-4---4-4-4-4-|9---9-9---9-9---9-9-9-9-| 
A|2-----------------------|------------------------|x---x-x---x-x---x-x-x-x-|x---x-x---x-x---x-x-x-x-| 
E|0-----------------------|------------0---2---3---|4---4-4---4-4---4-4-4-4-|9---9-9---9-9---9-9-9-9-| 

e|0-----------------------|0-----------------------|0-----------------------|0-----------------------| 
B|0-----------------------|0-----------------------|0-----------------------|0-----------------------| 
G|2-----------------------|4-----------------------|2-----------------------|4-----------------------| 
D|2-----------------------|4-----------------------|2-----------------------|4-----------------------| 
A|x-----------------------|x-----------------------|0-----------------------|2-----------------------| 
E|2-----------------------|4-----------------------|x-----------------------|x-----------------------| 


*********************************** 
| /   Slide up 
| \   Slide down 
| h   Hummer-on 
| p   Pull-off 
| ~   Vibrato 
| +   Harmonic 
| x   Dead note 
| b   Bend 
| pb  Pre-bend 
| br  Bend release 
| pbr Pre-bend release 
| brb Bend release bend 
*********************************** 
		  

See also:

tabs Lindsay Lohan - Take me away tabs Michael Jackson - BEN tabs Stevie Wonder - Sir Duke tabs Michael Jackson - 3 Michael Jackson Riffs tabs Christopher Cross - Sailing tabs Black Eyed Peas - Pump it
e-chords

Other versions:

tabs 30 Seconds To Mars - Mission tabs Kings X - Mission tabs Gabe Bondoc - Mission tabs Chemical Brothers - Mission Imposible tabs Temas de Filmes - Mission Impossible tabs U2 - Mission Impossible
auto scroll beats size up size down change color hide chords drawings
tab show chords e-chords YouTube Clip e-chords hide all tabs e-chords go to top tab

share