Futures

home > Futures

16 Tab

Futures

Difficulty: nolevelnolevel

by tercmoraes

tuner correct add songbook print version text version save to e-mail
chordsukulelecavacokeyboardtabbassdrumsharmonicsflute Guitar Pro
chords

16

  		

Tuning: Standard 
Fairly heavy distortion will work well. 

This is my first tab, and there are no others available. This was done completely  
by ear, and I think most of it  
sounds pretty accurate and acceptable. The song is fairly simple to play, and it  
just repeats similar patterns throughout. Fantastic song, by a great group - hope  
to see more from them in the near FUTURE!  

Intro 
e|---------------------------------------------------------------------------| 
B|---------------------------------------------------------------------------| 
G|--9h11-9-------------------------------------------------------------------| 
D|---------11----11-9-11-----------------------------------------------------| 
A|---------------------------------------------------------------------------| 
E|---------------------------------------------------------------------------| 

Not entirely sure about the first part, 
but it sounds ok to play along with. 
e|---------------------------------------------------------------------------| 
B|---------------------------------------------------------------------------| 
G|--9h11-9----9---------------------9h11-9----9-------------13-9----9--------| 
D|---------11---11-9-7-9-11-9--------------11---11-9-7-9-11------11---11-----| 
A|----------------------------7----------------------------------------------| 
E|---------------------------------------------------------------------------| 

e|---------------------------------------------------------------------------| 
B|-----------------------------------------------------------14--------------| 
G|--9h11-9----9---------------------9h11-9----9------------------------------| 
D|---------11---11-9-7-9-11-9--------------11---11-9-7-7-7-------------------| 
A|----------------------------7----------------------------------------------| 
E|---------------------------------------------------------------------------| 

verse 1 (Not too sure about the verses I'm afraid, although there isn't much lead) 
e|---------------------------------------------------------------------------| 
B|---------------------------------------------------------------------------| 
G|---------------------------------------------------------------------------| 
D|---------------------------------------------------------------------------| 
A|---------------------------------------------------------------------------| 
E|---------------------------------------------------------------------------| 

Pre-Chorus 1 
e|---------------------------------------------------------------------------| 
B|---------------------------------------------------------------------------| 
G|--9h11-----999999999h11-----999999999h11-----999999999h11------------------| 
D|---------------------------------------------------------------------------| 
A|---------------------------------------------------------------------------| 
E|---------------------------------------------------------------------------| 

Chorus 1 
e|---------------------------------------------------------------------------| 
B|---------------------------------------------------------------------------| 
G|--9h11-9----9---------------------9h11-9----9-------------13-9----9--------| 
D|---------11---11-9-7-9-11-9--------------11---11-9-7-9-11------11---11-----| 
A|----------------------------7----------------------------------------------| 
E|---------------------------------------------------------------------------| 

e|---------------------------------------------------------------------------| 
B|-----------------------------------------------------------14--------------| 
G|--9h11-9----9---------------------9h11-9----9------------------------------| 
D|---------11---11-9-7-9-11-9--------------11---11-9-7-7-7-------------------| 
A|----------------------------7----------------------------------------------| 
E|---------------------------------------------------------------------------| 

verse 2 
e|---------------------------------------------------------------------------| 
B|---------------------------------------------------------------------------| 
G|---------------------------------------------------------------------------| 
D|---------------------------------------------------------------------------| 
A|---------------------------------------------------------------------------| 
E|---------------------------------------------------------------------------| 

Pre-Chorus 2 
e|--------------------------------------------------------------| 
B|--------------------------------------------------------------| 
G|--9h111111111111111111999999999h111111111111111111999999999h11| 
D|--------------------------------------------------------------| 
A|--------------------------------------------------------------| 
E|--------------------------------------------------------------| 

------------------------------------------------| 
------------------------------------------------| 
1111111111111111999999999h111111111111111111----| 
------------------------------------------------| 
------------------------------------------------| 
------------------------------------| (All 11s not 1s) 

Chorus 2 
e|---------------------------------------------------------------------------| 
B|---------------------------------------------------------------------------| 
G|--9h11-9----9---------------------9h11-9----9-------------13-9----9--------| 
D|---------11---11-9-7-9-11-9--------------11---11-9-7-9-11------11---11-----| 
A|----------------------------7----------------------------------------------| 
E|---------------------------------------------------------------------------| 

e|---------------------------------------------------------------------------| 
B|---------------------------------------------------------------------------| 
G|--9h11-9----9---------------------9h11-9----9------------------------------| 
D|---------11---11-9-7-9-11-9--------------11---11-9-7-7-7-------------------| 
A|----------------------------7----------------------------------------------| 
E|---------------------------------------------------------------------------| 

Bridge (Part 1) 
e|-------------------------------------------------------------------------------------------| 
B|------------------------------10-10-14-14-9-9------------------------------10-10-14-14-9-9-| 
G|-9h111111111111111111111111-------------------9-9h111111111111111111111111-----------------| 
D|-------------------------------------------------------------------------------------------| 
A|-------------------------------------------------------------------------------------------| 
E|-------------------------------------------------------------------------------------------| 

e|------------------------------------------------------------------------------------------| 
B|------------------------------10-10-14-14-9-9------------------------------10-10-14-14-9b-| 
G|-9-9h111111111111111111111111-------------------9-9h111111111111111111111111--------------| 
D|------------------------------------------------------------------------------------------| 
A|------------------------------------------------------------------------------------------| 
E|------------------------------------------------------------------------------------------| 

Bridge (Part 2) - Not really sure about this one...| 
e|-9-9-12-12-9-------------9-9-12-12-9-------------9-9-12-12-9-| 
B|-------------12-10-------------------12-10-------------------| 
G|-------------------13-9--------------------13-9--------------| 
D|-------------------------------------------------------------| 
A|-------------------------------------------------------------| 
E|-------------------------------------------------------------| 


------------9-9-12-12-9------------------| 
12-10-------------------12-10-------14b--| 
------13-9--------------------13-9-------| 
-----------------------------------------| 
-----------------------------------------| 
-----------------------------------------| 


Chorus 3/outro 
e|---------------------------------------------------------------------------| 
B|---------------------------------------------------------------------------| 
G|--9h11-9----9---------------------9h11-9----9-------------13-9----9--------| 
D|---------11---11-9-7-9-11-9--------------11---11-9-7-9-11------11---11-----| 
A|----------------------------7----------------------------------------------| 
E|---------------------------------------------------------------------------| 

e|---------------------------------------------------------------------------| 
B|---------------------------------------------------------------------------| 
G|--9h11-9----9---------------------9h11-9----9------------------------------| 
D|---------11---11-9-7-9-11-9--------------11---11-9-7-7-7-------------------| 
A|----------------------------7----------------------------------------------| 
E|---------------------------------------------------------------------------| 

e|---------------------------------------------------------------------------| 
B|---------------------------------------------------------------------------| 
G|--9h11-9----9---------------------9h11-9----9-------------13-9----9--------| 
D|---------11---11-9-7-9-11-9--------------11---11-9-7-9-11------11---11-----| 
A|----------------------------7----------------------------------------------| 
E|---------------------------------------------------------------------------| 

e|---------------------------------------------------------------------------| 
B|---------------------------------------------------------------------------| 
G|--9h11-9----9---------------------9h11-9----9------------------------------| 
D|---------11---11-9-7-9-11-9--------------11---11-9-7-7-7(hold)-------------| 
A|----------------------------7----------------------------------------------| 
E|---------------------------------------------------------------------------| 

So that's all I can work out for the lead, give the song a listen for the rhythm  
of it all, and I will possibly try the chords and the verses at some point. Until  
now, here's all this, and I hope you enjoy playing! (Be sure to email me or leave  
a comment with any corrections/improvements!) 

************************************ 

| /   slide up 
| \   slide down 
| h   hammer-on 
| p   pull-off 
| ~   vibrato 
| +   harmonic 
| x   Mute note 
| b   Bend 
| pb  Pre-bend 
| br  Bend release 
| pbr Pre-bend release 
| brb Bend release bend 

************************************ 
	  

Search Paypal
auto scroll beats size up size down change color hide chords drawings
tab show chords e-chords YouTube Clip e-chords hide all tabs e-chords go to top tab