Future Leaders Of The World

Let Met Out

Future Leaders Of The World

tabs Expert expert

save to print version add songbook text version e-mail correct tuner
chordsukulelecavacokeyboardtabbassdrumsharmonicaflute Guitar Pro
close

there isn't a video lesson for this song

chords

Let Met Out

	  		 
tuning: Db Ab Db Gb Bb eb 
 
intro/1st verse 
 
eb----------------------------------------| 
Bb----------------------------------------| 
Gb-----0-------3-------------------0------| 
Db-------4-------4--5-55-0-------4---4----| 
Ab---2-------4------5-55-0--5~---------5--| 
Db-4-------4--------5-55-0----------------| 
 
Chorus 
 
eb---------------------------------| 
Bb---------------------------------| 
Gb-4-4-----------------------------| 
Db-4-4--4-5--0-0--5-5-5-5-4-4-4-4--| 
Ab-2-2--4-5--0-0--5-5-5-5-4-4-4-4--| 
Db------4-5--0-0--5-5-5-5-4-4-4-4--| 
 
Second/Third Verse 
 
eb---------0----------------------------------0---------------3---2---| 
Bb---------3-----3s2--------------------------2-----3s0---------3-----| 
Gb-4-4-----2--2------2----0-----------4-4-----3--2-------2------------| 
Db-4-4-4-5-0-----------0-----0--------4-4-4-5-0-------------0---------| 
Ab-2-2-4-5-0-------------------2s0----2-2-4-5-0-----------------------| 
Db-----4-5-0------------------------------4-5-0-----------------------| 
 
Chorus 
 
eb---------------------------------| 
Bb---------------------------------| 
Gb-4-4-----------------------------| 
Db-4-4--4-5--0-0--5-5-5-5-4-4-4-4--| 
Ab-2-2--4-5--0-0--5-5-5-5-4-4-4-4--| 
Db------4-5--0-0--5-5-5-5-4-4-4-4--| 
 
Bridge 
 
eb------------------------------------------------------------------| 
Bb------------------------------------------------------------------| 
Gb-4-4-x-x-x-x-x-x--------------------------------------------------| 
Db-4-4-x-x-x-x-x-x-4-4-x-x-5-5-x-x-0-0-x-x-x-x-x-x-5-5-x-x-4-4-x-x--| 
Ab-2-2-x-x-x-x-x-x-4-4-x-x-5-5-x-x-0-0-x-x-x-x-x-x-5-5-x-x-4-4-x-x--| 
Db-----------------4-4-x-x-5-5-x-x-0-0-x-x-x-x-x-x-5-5-x-x-4-4-x-x--| 
 
 
 
_______________________________________________________ 
Contribuição: Jefferson de Souza([email protected]) 

		  

See also:

tabs Tonic - If You Could Only See tabs Red Hot Chili Peppers - Around The World tabs Jonas Brothers - Gotta Find You (camp Rock) tabs Incubus - Are You In tabs Ben Harper - Alone tabs 311 - The Love Song
e-chords

Other versions:

tabs Future Leaders Of The World - Let Met Out
auto scroll beats size up size down change color hide chords drawings
tab show chords e-chords YouTube Clip e-chords hide all tabs e-chords go to top tab

share