Funeral For a Friend

Welcome Home Armageddon Tab

Funeral For a Friend

Difficulty: nolevelnolevel

by abelamin

tuner correct add songbook print version text version save to e-mail
chordsukulelecavacokeyboardtabbassdrumsharmonicsflute Guitar Pro
close

there isn't a video lesson for this song

chords

Welcome Home Armageddon

  		
INTRO/CHORUS 

eb|---------------|-----------|-------------|------------------| 
Bb|-7-7---7-10-7~-|-7-8--7-10-|-5-5-x-x-3/5-|-/10-10-x-x-10-10-| 
Gb|-7---9---------|-7----7----|-6-6-x-x-4/6-|-/11-11-x-x-11-11-| 
Db|---------------|-----------|-------------|------------------| 
Ab|---------------|-----------|-------------|------------------| 
Db|---------------|-----------|-------------|------------------| 
 - the reason this next bit sounds so cool is that he plucks the 
   first note, and then slides between the notes rather than  
   plucking each one in a legato style, so try to play it like  
   its written below and it'll sound like the track.
 
eb|-----------------------------------| 
Bb|-----------------------------------| 
Gb|-2h4p2h4-/7p6\-2h4h2h4p2h4-/7p6\4--| 
Db|-----------------------------------| 
Ab|-----------------------------------| 
Db|-----------------------------------| 



PRE-VERSE 

eb|-----------------------------------| 
Bb|-----------------------------------| 
Gb|------------------2----------------| 
Db|-0--0-2/4\2p0-0-0---0-2-0-2/4\2-0~-| 
Ab|--------------------------------0~-| 
Db|--------------------------------0~-| 


VERSE 

eb|-------------------------------|-----------------------------| 
Bb|-------------------------------|-----------------------------| 
Gb|-------------------------------|-----------------------------| 
Db|---------7p4-------------5p4---|---------7-------5p4---------| 
Ab|-0---5-------5-------7-------5-|-0---5-------5-------5---5/7-| 
Db|-0-0---0-------0-0-0---0-------|-0-0---0---0---0-------0-----| 

eb|-----------------------------------------------| 
Bb|---------------3~=-----------------------------| 
Gb|------------5~=--------------------------------| 
Db|-5-5-5-5--x-------------------------7----------| 
Ab|-3-3-3-3--x-------------7h9p7-5---------5h7p5--| 
Db|--------------------0-0---------0-0---0--------| 
              

THE INTRO IS ALSO THE CHORUS


BREAKDOWN 

eb|-----------------------------------| 
Bb|-----------------------------------| 
Gb|-----------------------------------| 
Db|-4-4-4-------------4-4-------------| 
Ab|-2-2-2-0-0-0-0-0-0-2-2-0-0-0-0-0-0-| 
Db|-------0-0-0-0-0-0-----0-0-0-0-0-0-| 

eb|-------------------------------| 
Bb|-------------------------------| 
Gb|-------------------------------| 
Db|-4-4---------------------------| 
Ab|-2-2-0-0-0-0-0-0-7-7-9-7-5-5-5-| x4 
Db|-----0-0-0-0-0-0-7-7-9-7-5-5-5-| 

 - the lead guitar then changes to this: 
eb|----------------------------------------------------| 
Bb|----------------------------------------------------| 
Gb|----------------------------------------------------| 
Db|-4-4-4---4/9~--4-4---4/9~--4-4---4------------------| 
Ab|-------5-----------5-----------5---5~-7-7-9-7-5-5-5-| x4 
D|--------------------------------------7-7-9-7-5-5-5-| 

eb|-----| 
Bb|-----| 
Gb|-4~--| 
Db|-4~--| 
Ab|-2~--| 
Db|-----| 


ACOUSTIC VERSE ENDING 

eb|----0---2-------5--|    eb|----0--------0----| 
Bb|------0-------5----|    Bb|------0--------0--| 
Gb|-------------------|    Gb|------------------| 
Db|-----------0~------|    Db|------------------| 
Ab|-2~----------------| x3 Ab|-0~-----0---------| 
Db|-------------------|    Db|----------5~------| 

- the second guitar starts playing these small arpeggios 
  over the top, if you want to play them 

eb|-2-----------5-------| 
Bb|---3-----------3-----| 
Gb|-----4~----------4~--| 
Db|---------------------| 
Ab|---------------------| 
Db|---------------------|  
	  

auto scroll beats size up size down change color hide chords drawings
tab show chords e-chords YouTube Clip e-chords hide all tabs e-chords go to top tab

share with facebook

Search Paypal