Funeral For a Friend

Front Row Seats To The End Of The Worlds Tab

Funeral For a Friend

Difficulty: nolevelnolevel

by VsWorld

tuner correct add songbook print version text version save to e-mail
chordsukulelecavacokeyboardtabbassdrumsharmonicsflute Guitar Pro
close

there isn't a video lesson for this song

chords

Front Row Seats To The End Of The Worlds

  		

Tuning: C# G# C# F# A# D# 

Intro - Clean 
|-7-| 
|-0-| 
|-4-| 
|-5-| 
|-5-| 
|---| 

Then  
Lead 
|-----------| 
|-----------| 
|-7----6----| 
|--x16--x16-| 
|-5----4----| x2 
|-----------| 

Rhythm 
|-------------| 
|-------------| 
|-7-----6-----| 
|-5-----5-----| 
|-5-x16-4-x16-| x2 
|-5-----5-----| 

Verse 
Lead 
|-----------------------------|----|--------------------------7--7-| 
|-----------------------------|----|--------------------------6--6-| 
|-3-------------3-3-3-4-4-4-5-|----|-3------------------------7--7-| 
|-3p0-3h4-0-0-0-1-1-1-2-2-2-3-|----|-3p0-3h4-0-0--4p3-0-3p0-0------| 
|-1p0-3h4-0-0-0-1-1-1-2-2-2-3-|-x3-|-1p0-3h4-0-0--4p3-0-3p0-0------| x2 
|-----3h4-0-0-0-1-1-1-2-2-2-3-|----|-----3h4-0-0--4p3-0-3p0-0------| 

Rhythm 
|-----------------------------|----|-------------------------------| 
|-----------------------------|----|-------------------------------| 
|-3---------------------------|----|-3------------------------4--4-| 
|-3p0-3h4-0-0-0-1-1-1-2-2-2-3-|----|-3p0-3h4-0-0--4p3-0-3p0-0-3--3-| 
|-1p0-3h4-0-0-0-1-1-1-2-2-2-3-|-x3-|-1p0-3h4-0-0--4p3-0-3p0-0-2--2-| x2 
|-----3h4-0-0-0-1-1-1-2-2-2-3-|----|-----3h4-0-0--4p3-0-3p0-0------| 

Chorus 
Lead 
|-----------------------------------------------------| 
|----------7--------8----7----10----8----7------------| 
|-7---7-x4-7-x4-6---7-x4-7-x4-7--x8-7-x4-7-x4-7---6---| 
|--x8-5----5-----x8-5----5----7-----7----7-----x9--x7-| 
|-5-------------4-----------------------------5---4---| 
|-----------------------------------------------------| 

Rhythm 
|-----------------------------| 
|-----------------------------| 
|-------------------7----6----| 
|-5-----7-----9-----7-x8-4----| 
|-5-x16-7-x16-9-x16-5----4-x8-| 
|-5-----7-----9----------4----| 

Pre Verse 
Lead 
|-7---7----------------------------7--7-| 
|-6---6----------------------------6--6-| 
|-7---7---3------------------------7--7-| 
|---------3p0-3h4-0-0--4p3-0-3p0-0------| 
|---------1p0-3h4-0-0--4p3-0-3p0-0------|  
|-------------3h4-0-0--4p3-0-3p0-0------| 

Rhythm 
|---------------------------------------| 
|---------------------------------------| 
|---------3------------------------4--4-| 
|---------3p0-3h4-0-0--4p3-0-3p0-0-3--3-| 
|---------1p0-3h4-0-0--4p3-0-3p0-0-2--2-|  
|-------------3h4-0-0--4p3-0-3p0-0------| 

Repeat Verse Once 
Repeat Chorus 
Breakdown 
Lead 
|-7---7-| 
|-6---6-| 
|-7---7-| 
|-------| 
|-------| x2 
|-------| 

Rhythm 
|------------------------------| 
|------------------------------| 
|------------------------------| 
|-6-5--5-4--4-3----0------0----| 
|-6-5--5-4--4-3--0-0--0-0-0--0-| x4 
|-6-5--5-4--4-3--0-0--0-0-0--0-| 

Then 
Lead 
|------------------------------|------------------7------7----| 
|------------------------------|------------------6------6----| 
|------------------------------|------------------7------7----| 
|-6-5--5-4--4-3----0------0----|-6-5--5-4--4-3----------------| 
|-6-5--5-4--4-3--0-0--0-0-0--0-|-6-5--5-4--4-3--0----0-0----0-| x2 
|-6-5--5-4--4-3--0-0--0-0-0--0-|-6-5--5-4--4-3--0----0-0----0-| 

Rhythm 
|------------------------------| 
|------------------------------| 
|------------------------------| 
|-6-5--5-4--4-3----0------0----| 
|-6-5--5-4--4-3--0-0--0-0-0--0-| x4 
|-6-5--5-4--4-3--0-0--0-0-0--0-| 

Then 
Lead 
|------------------------------|------------------7------7----| 
|------------------------------|------------------6------6----| 
|-8-7--7-6--6-5----------------|-8-7--7-6--6-5----7------7----| 
|------------------0------0----|------------------------------| 
|-6-5--5-4--4-3--0-0--0-0-0--0-|-6-5--5-4--4-3--0----0-0----0-| x2 
|----------------0-0--0-0-0--0-|----------------0----0-0----0-| 

Rhythm 
|------------------------------| 
|------------------------------| 
|------------------------------| 
|-6-5--5-4--4-3----0------0----| 
|-6-5--5-4--4-3--0-0--0-0-0--0-| x4 
|-6-5--5-4--4-3--0-0--0-0-0--0-| 

Repeat Chorus 
Outro 
Lead 
|------------------------------|------------------7------7----| 
|------------------------------|------------------6------6----| 
|------------------------------|------------------7------7----| 
|-6-5--5-4--4-3----0------0----|-6-5--5-4--4-3----------------| 
|-6-5--5-4--4-3--0-0--0-0-0--0-|-6-5--5-4--4-3--0----0-0----0-|  
|-6-5--5-4--4-3--0-0--0-0-0--0-|-6-5--5-4--4-3--0----0-0----0-| 

Rhythm 
|------------------------------| 
|------------------------------| 
|------------------------------| 
|-6-5--5-4--4-3----0------0----| 
|-6-5--5-4--4-3--0-0--0-0-0--0-| x2 
|-6-5--5-4--4-3--0-0--0-0-0--0-| 
	  

auto scroll beats size up size down change color hide chords drawings
tab show chords e-chords YouTube Clip e-chords hide all tabs e-chords go to top tab

share with facebook

Search Paypal