Fuel

Soul To Preach To

Fuel

tabs

by  ABELAMIN

save to print version add songbook text version e-mail correct tuner
chordsukulelecavacokeyboardtabbassdrumsharmonicaflute Guitar Pro
close

there isn't a video lesson for this song

chords

Soul To Preach To

	  		Tabbed by: Joshua Garcia ([email protected]) 

Tabs for the song: Soul To Preach To by Fuel 
Please rate and let me know if you have any corrections. Thank you. 


It took me a LOT of close listening, observing the music video, and patience 
to figure out the tuning for this one, but thankfully, I was able to figure 
it all out. Hopefully, it gets appreciated! And as always, I assure 
you it's accurate. It's C# F# C# F# C#4 F#4 Enjoy! 


Tuning: Custom (C# F# C# F# C# F#) 


Intro 
Guitar 1/2: 
F#||----------------------------------------------------------------------| 
C#||----------------------------------------------------------------------| 
F#||--0-2-3-0-3/5-0-5-7-0-7-0-7/10-10~---0-2-3-0-3/5-0-5-7-5-3~--0~--x-x--| 
C#||--0-2-3-0-3/5-0-5-7-0-7-0-7/10-10~---0-2-3-0-3/5-0-5-7-5-3~--0~--x-x--| 
F#||--0-2-3-0-3/5-0-5-7-0-7-0-7/10-10~---0-2-3-0-3/5-0-5-7-5-3~--0~--x-x--| 
C#||----------------------------------------------------------------------| 


F#||-----------------------------------------------------------------| 
C#||-----------------------------------------------------------------| 
F#||--0-2-3-0-3/5-0-5-7-0-7-0-7/10-10~---0-2-3-0-3/5-0-5-7-5-3~--0~--| 
C#||--0-2-3-0-3/5-0-5-7-0-7-0-7/10-10~---0-2-3-0-3/5-0-5-7-5-3~--0~--| 
F#||--0-2-3-0-3/5-0-5-7-0-7-0-7/10-10~---0-2-3-0-3/5-0-5-7-5-3~--0~--| 
C#||-----------------------------------------------------------------| 



Verse 
Guitar 1: 
F#||-----------------------------------------------| 
C#||--------0~----------0~----------------0~----0--| 
F#||-----------0~----------0~----0~-------0~-------| 
C#||-----0~----------0~-------------------0~-------| x12 
F#||--3~----------4~----------------------x--------| 
C#||--------------------------3~----5~----5~-------| 


Guitar 2: 
F#||--------| 
C#||--------| 
F#||--(0~)--| 
C#||--(0~)--| 
F#||--(0~)--| 
C#||--------| 


F#||------------------------------|------------------------------| 
C#||--5-3-0---7-5-0-------0---0~--|--5-3-0---7-5-0-------3---0~--| 
F#||--------0-------0-3-5---0-----|--------0-------0-3-5---0-----| 
C#||------------------------------|------------------------------| 
F#||------------------------------|------------------------------| 
C#||------------------------------|------------------------------| 


F#||------------------------------|------------------------------| 
C#||------------------------------|------------------------------| 
F#||------------------------------|------------------------------| 
C#||------------------------------|------------------------------| 
F#||------------------------------|------------------------------| 
C#||------------------------------|------------------------------| 


F#||------------------------------|------------------------------| 
C#||------------------------------|------------------------------| 
F#||------------------------------|--'5~-------'5~-------'5~-----| 
C#||------------------------------|-----'5~-------'5~-------'5~--| 
F#||------------------------------|------------------------------| 
C#||------------------------------|------------------------------| 


F#||------------------------------|------------------------------| 
C#||------------------------------|------------------------------| 
F#||------------------------------|------------------------------| 
C#||------------------------------|------------------------------| 
F#||------------------------------|------------------------------| 
C#||------------------------------|------------------------------| 


F#||------------------------------|------------------------------| 
C#||------------------------------|--5-3-0---7-5-0-------3---0~--| 
F#||--'5~-------'5~-------'5~-----|--------0-------0-3-5---0-----| 
C#||-----'5~-------'5~-------'5~--|------------------------------| 
F#||------------------------------|------------------------------| 
C#||------------------------------|------------------------------| 



Pre-Chorus 
Guitar 1: 
F#||--------0~-------0~-------0~-------0~-------0~-----| 
C#||-----------0~-------0~-------0~-------0~-------0~--| 
F#||-----0~--------------------------------------------| 
C#||--1~----------1~-------1~-------1~-------1~--------| 
F#||---------------------------------------------------| 
C#||---------------------------------------------------| 


F#||--------0~-------0~-------0~-------0~-------0~-----| 
C#||-----------3~-------3~-------3~-------3~-------3~--| 
F#||-----0~--------------------------------------------| 
C#||--3~----------3~-------3~-------3~-------3~--------| 
F#||---------------------------------------------------| 
C#||---------------------------------------------------| 


Guitar 2: 
F#||------|------| 
C#||------|------| 
F#||------|------| 
C#||--1~--|--3~--| 
F#||------|------| 
C#||------|------| 



Verse 
Guitar 1: 
F#||-----------------------------------------------| 
C#||--------0~----------0~----------------0~----0--| 
F#||-----------0~----------0~----0~-------0~-------| 
C#||-----0~----------0~-------------------0~-------| x2 
F#||--3~----------4~----------------------x--------| 
C#||--------------------------3~----5~----5~-------| 


Guitar 2: 
F#||------------------------------|------------------------------| 
C#||--5-3-0---7-5-0-------0---0~--|--5-3-0---7-5-0-------3---0~--| 
F#||--------0-------0-3-5---0-----|--------0-------0-3-5---0-----| 
C#||------------------------------|------------------------------| 
F#||------------------------------|------------------------------| 
C#||------------------------------|------------------------------| 



Pre-Chorus 
Guitar 1: 
F#||--------0~-------0~-------0~-------0~-------0~-----| 
C#||-----------0~-------0~-------0~-------0~-------0~--| 
F#||-----0~--------------------------------------------| 
C#||--1~----------1~-------1~-------1~-------1~--------| 
F#||---------------------------------------------------| 
C#||---------------------------------------------------| 


F#||--------0~-------0~-------0~-------0~--| 
C#||-----------3~-------3~-------3~--------| 
F#||-----0~--------------------------------| 
C#||--3~----------3~-------3~-------3~-----| 
F#||---------------------------------------| 
C#||---------------------------------------| 


Guitar 2: 
F#||------|------| 
C#||------|------| 
F#||------|------| 
C#||--1~--|--3~--| 
F#||------|------| 
C#||------|------| 


Guitar 1/2: 
F#||------------| 
C#||------------| 
F#||--x-x-//\\--| 
C#||--x-x-//\\--| 
F#||--x-x-//\\--| 
C#||------------| 



Chorus 
Guitar 1/2: 
F#||----------------------------------------------------------------------| 
C#||----------------------------------------------------------------------| 
F#||--0-2-3-0-3/5-0-5-7-0-7-0-7/10-10~---0-2-3-0-3/5-0-5-7-5-3~--0~--x-x--| 
C#||--0-2-3-0-3/5-0-5-7-0-7-0-7/10-10~---0-2-3-0-3/5-0-5-7-5-3~--0~--x-x--| 
F#||--0-2-3-0-3/5-0-5-7-0-7-0-7/10-10~---0-2-3-0-3/5-0-5-7-5-3~--0~--x-x--| 
C#||----------------------------------------------------------------------| 


F#||-----------------------------------------------------------------| 
C#||-----------------------------------------------------------------| 
F#||--0-2-3-0-3/5-0-5-7-0-7-0-7/10-10~---0-2-3-0-3/5-0-5-7-5-3~--0~--| 
C#||--0-2-3-0-3/5-0-5-7-0-7-0-7/10-10~---0-2-3-0-3/5-0-5-7-5-3~--0~--| 
F#||--0-2-3-0-3/5-0-5-7-0-7-0-7/10-10~---0-2-3-0-3/5-0-5-7-5-3~--0~--| 
C#||-----------------------------------------------------------------| 



Verse 
Guitar 1: 
F#||-----------------------------------------------| 
C#||--------0~----------0~----------------0~----0--| 
F#||-----------0~----------0~----0~-------0~-------| 
C#||-----0~----------0~-------------------0~-------| x10 
F#||--3~----------4~----------------------x--------| 
C#||--------------------------3~----5~----5~-------| 


Guitar 2: 
F#||------------------------------|------------------------------| 
C#||------------------------------|------------------------------| 
F#||--'5~-------'5~-------'5~-----|--'5~-------'5~-------'5~-----| 
C#||-----'5~-------'5~-------'5~--|-----'5~-------'5~-------'5~--| 
F#||------------------------------|------------------------------| 
C#||------------------------------|------------------------------| 


F#||--------------------------------|------------------------------| 
C#||--5-3-0---7-5-0-------0---0h3~--|--5-3-0---7-5-0-------3---0~--| 
F#||--------0-------0-3-5---0-------|--------0-------0-3-5---0-----| 
C#||--------------------------------|------------------------------| 
F#||--------------------------------|------------------------------| 
C#||--------------------------------|------------------------------| 


F#||------------------------------|------------------------------| 
C#||------------------------------|------------------------------| 
F#||------------------------------|------------------------------| 
C#||------------------------------|------------------------------| 
F#||------------------------------|------------------------------| 
C#||------------------------------|------------------------------| 


F#||------------------------------|------------------------------| 
C#||------------------------------|------------------------------| 
F#||------------------------------|--'5~-------'5~-------'5~-----| 
C#||------------------------------|-----'5~-------'5~-------'5~--| 
F#||------------------------------|------------------------------| 
C#||------------------------------|------------------------------| 


F#||------------------------------|------------------------------| 
C#||------------------------------|--5-3-0---7-5-0-------3---0~--| 
F#||------------------------------|--------0-------0-3-5---0-----| 
C#||------------------------------|------------------------------| 
F#||------------------------------|------------------------------| 
C#||------------------------------|------------------------------| 



Pre-Chorus 
Guitar 1: 
F#||--------0~-------0~-------0~-------0~-------0~-----| 
C#||-----------0~-------0~-------0~-------0~-------0~--| 
F#||-----0~--------------------------------------------| 
C#||--1~----------1~-------1~-------1~-------1~--------| 
F#||---------------------------------------------------| 
C#||---------------------------------------------------| 


F#||--------0~-------0~-------0~-------0~-------0~-----| 
C#||-----------3~-------3~-------3~-------3~-------3~--| 
F#||-----0~--------------------------------------------| 
C#||--3~----------3~-------3~-------3~-------3~--------| 
F#||---------------------------------------------------| 
C#||---------------------------------------------------| 


Guitar 2: 
F#||------|------| 
C#||------|------| 
F#||------|------| 
C#||--1~--|--3~--| 
F#||------|------| 
C#||------|------| 



Verse 
Guitar 1: 
F#||-----------------------------------------------| 
C#||--------0~----------0~----------------0~----0--| 
F#||-----------0~----------0~----0~-------0~-------| 
C#||-----0~----------0~-------------------0~-------| x2 
F#||--3~----------4~----------------------x--------| 
C#||--------------------------3~----5~----5~-------| 


Guitar 2: 
F#||------------------------------|------------------------------| 
C#||------------------------------|--5-3-0---7-5-0-------3---0~--| 
F#||------------------------------|--------0-------0-3-5---0-----| 
C#||------------------------------|------------------------------| 
F#||------------------------------|------------------------------| 
C#||------------------------------|------------------------------| 



Pre-Chorus 
Guitar 1: 
F#||--------0~-------0~-------0~-------0~-------0~-----| 
C#||-----------0~-------0~-------0~-------0~-------0~--| 
F#||-----0~--------------------------------------------| 
C#||--1~----------1~-------1~-------1~-------1~--------| 
F#||---------------------------------------------------| 
C#||---------------------------------------------------| 


F#||--------0~-------0~-------0~-------0~--| 
C#||-----------3~-------3~-------3~--------| 
F#||-----0~--------------------------------| 
C#||--3~----------3~-------3~-------3~-----| 
F#||---------------------------------------| 
C#||---------------------------------------| 


Guitar 2: 
F#||------|------| 
C#||------|------| 
F#||------|------| 
C#||--1~--|--3~--| 
F#||------|------| 
C#||------|------| 


Guitar 1/2: 
F#||------------| 
C#||------------| 
F#||--x-x-//\\--| 
C#||--x-x-//\\--| 
F#||--x-x-//\\--| 
C#||------------| 



Chorus 
Guitar 1/2: 
F#||----------------------------------------------------------------------| 
C#||----------------------------------------------------------------------| 
F#||--0-2-3-0-3/5-0-5-7-0-7-0-7/10-10~---0-2-3-0-3/5-0-5-7-5-3~--0~--x-x--| 
C#||--0-2-3-0-3/5-0-5-7-0-7-0-7/10-10~---0-2-3-0-3/5-0-5-7-5-3~--0~--x-x--| 
F#||--0-2-3-0-3/5-0-5-7-0-7-0-7/10-10~---0-2-3-0-3/5-0-5-7-5-3~--0~--x-x--| 
C#||----------------------------------------------------------------------| 


F#||-----------------------------------------------------------------| 
C#||-----------------------------------------------------------------| 
F#||--0-2-3-0-3/5-0-5-7-0-7-0-7/10-10~---0-2-3-0-3/5-0-5-7-5-3~--0~--| 
C#||--0-2-3-0-3/5-0-5-7-0-7-0-7/10-10~---0-2-3-0-3/5-0-5-7-5-3~--0~--| 
F#||--0-2-3-0-3/5-0-5-7-0-7-0-7/10-10~---0-2-3-0-3/5-0-5-7-5-3~--0~--| 
C#||-----------------------------------------------------------------| 



Bridge 
Guitar 1: 
F#||-----------------------------------------|-----------------------------------------| 
C#||-----------------------------------------|-----------------------------------------| 
F#||--21~------19~------17~----16~---16-14~--|--21~------19~------17~----16~---16-14~--| 
C#||--x--------x--------x------x-----x--x----|--x--------x--------x------x-----x--x----| 
F#||--19~------17~------15~----14~---14-12~--|--19~------17~------15~----14~---14-12~--| 
C#||-----------------------------------------|-----------------------------------------| 


F#||----------------------------------------------| 
C#||----------------------------------------------| 
F#||--12~------12~------12~------12~----12-12-12--| 
C#||--x--------x--------x--------x------x--x--x---| 
F#||--12~------12~------12~------12~----12-12-12--| 
C#||----------------------------------------------| 


Guitar 2: 
F#||----------------------------------|----------------------------------| 
C#||----------------------------------|----------------------------------| 
F#||----------------------------------|----------------------------------| 
C#||----------------------------------|----------------------------------| 
F#||--3~------3~-----3~-----3-2-3/5~--|--3~------3~-----3~-----3-2-3/5~--| 
C#||--1~------1~-----1~-----1-0-1/3~--|--1~------1~-----1~-----1-0-1/3~--| 


F#||-----------------------------------------| 
C#||-----------------------------------------| 
F#||-----------------------------------------| 
C#||-----------------------------------------| 
F#||--7~------7~------7~---7-7~----10-10-10--| 
C#||--5~------5~------5~---5-5~----8--8--8---| 



Guitar 1: 
F#||-----------------------------------------|-----------------------------------------| 
C#||-----------------------------------------|-----------------------------------------| 
F#||--19~------17~------15~----14~---14-12~--|--19~------17~------15~----14~---14-12~--| 
C#||--x--------x--------x------x-----x--x----|--x--------x--------x------x-----x--x----| 
F#||--19~------17~------15~----14~---14-12~--|--19~------17~------15~----14~---14-12~--| 
C#||-----------------------------------------|-----------------------------------------| 


Guitar 2: 
F#||----------------------------------|----------------------------------| 
C#||----------------------------------|----------------------------------| 
F#||----------------------------------|----------------------------------| 
C#||----------------------------------|----------------------------------| 
F#||--3~------3~-----3~-----3-2-3/5~--|--3~------3~-----3~-----3-2-3/5~--| 
C#||--1~------1~-----1~-----1-0-1/3~--|--1~------1~-----1~-----1-0-1/3~--| 



Guitar 1: 
F#||---------------------------------------------------------------------------| 
C#||---------------------------------------------------------------------------| 
F#||--14-14-14-14-14-14-14-14-14-14-14-14-14-14-14-14-14-14-14-14-14-14-14-14--| 
C#||--x--x--x--x--x--x--x--x--x--x--x--x--x--x--x--x--x--x--x--x--x--x--x--x---| 
F#||--14-14-14-14-14-14-14-14-14-14-14-14-14-14-14-14-14-14-14-14-14-14-14-14--| 
C#||---------------------------------------------------------------------------| 


Guitar 1 (Dub): 
F#||--------------------------------------------------| 
C#||--------------------------------------------------| 
F#||--7~------7~------11~------11~------14~------14~--| 
C#||--x-------x-------x--------x--------x--------x----| 
F#||--7~------7~------11~------11~------14~------14~--| 
C#||--------------------------------------------------| 


Guitar 1/1 (Dub): 
F#||----------------------------------| 
C#||----------------------------------| 
F#||--19\17-17\15-15\14-14\12-12~(~)--| 
C#||--x-\x--x-\x--x-\x--x-\x--x-------| 
F#||--19\17-17\15-15\14-14\12-12~-----| 
C#||----------------------------------| 


Guitar 2: 
F#||--------------------------------------------------------------| 
C#||--------------------------------------------------------------| 
F#||--------------------------------------------------------------| 
C#||--------------------------------------------------------------| 
F#||--2~------2~------2~------2~------2~------2~------2~------2~--| 
C#||--0~------0~------0~------0~------0~------0~------0~------0~--| 



Interlude 
Guitar 2: 
F#||------------------------------|------------------------------| 
C#||--5-3-0---7-5-0-------0---0~--|--5-3-0---7-5-0-------3---0~--| 
F#||--------0-------0-3-5---0-----|--------0-------0-3-5---0-----| 
C#||------------------------------|------------------------------| x2 
F#||------------------------------|------------------------------| 
C#||------------------------------|------------------------------| 


Guitar 1: 
F#||----------------------------------------------| 
C#||--------0~----------0~---------------0~----0--| 
F#||-----------0~----------0~----0~------0~-------| 
C#||-----0~----------0~------------------0~-------| x2 
F#||--3~----------4~---------------------x--------| 
C#||--------------------------3~----5~---5~-------| 



Pre-Chorus 
Guitar 1: 
F#||--------0~-------0~-------0~-------0~-------0~-----| 
C#||-----------0~-------0~-------0~-------0~-------0~--| 
F#||-----0~--------------------------------------------| 
C#||--1~----------1~-------1~-------1~-------1~--------| 
F#||---------------------------------------------------| 
C#||---------------------------------------------------| 


F#||--------0~-------0~-------0~-------0~-------0~-----| 
C#||-----------3~-------3~-------3~-------3~-------3~--| 
F#||-----0~--------------------------------------------| 
C#||--3~----------3~-------3~-------3~-------3~--------| 
F#||---------------------------------------------------| 
C#||---------------------------------------------------| 


Guitar 2: 
F#||------|------| 
C#||------|------| 
F#||------|------| 
C#||--1~--|--3~--| 
F#||------|------| 
C#||------|------| 



Chorus 
Guitar 1/2: 
F#||----------------------------------------------------------------------| 
C#||----------------------------------------------------------------------| 
F#||--0-2-3-0-3/5-0-5-7-0-7-0-7/10-10~---0-2-3-0-3/5-0-5-7-5-3~--0~--x-x--| 
C#||--0-2-3-0-3/5-0-5-7-0-7-0-7/10-10~---0-2-3-0-3/5-0-5-7-5-3~--0~--x-x--| 
F#||--0-2-3-0-3/5-0-5-7-0-7-0-7/10-10~---0-2-3-0-3/5-0-5-7-5-3~--0~--x-x--| 
C#||----------------------------------------------------------------------| 


F#||-----------------------------------------------------------------| 
C#||-----------------------------------------------------------------| 
F#||--0-2-3-0-3/5-0-5-7-0-7-0-7/10-10~---0-2-3-0-3/5-0-5-7-5-3~--0~--| 
C#||--0-2-3-0-3/5-0-5-7-0-7-0-7/10-10~---0-2-3-0-3/5-0-5-7-5-3~--0~--| x2 
F#||--0-2-3-0-3/5-0-5-7-0-7-0-7/10-10~---0-2-3-0-3/5-0-5-7-5-3~--0~--| 
C#||-----------------------------------------------------------------| 



Outro 
Guitar 1: 
F#||-----------------------------------------------| 
C#||--------0~----------0~----------------0~----0--| 
F#||-----------0~----------0~----0~-------0~-------| 
C#||-----0~----------0~-------------------0~-------| x3 
F#||--3~----------4~----------------------x--------| 
C#||--------------------------3~----5~----5~-------| 


F#||------------------------------------------| 
C#||--------0~----------0~----------------0~--| 
F#||-----------0~----------0~----0~-------0~--| 
C#||-----0~----------0~-------------------0~--| 
F#||--3~----------4~----------------------x---| 
C#||--------------------------3~----5~----5~--| 


Guitar 2: 
F#||---------| 
C#||---------| 
F#||--(12~)--| 
C#||---------| 
F#||---------| 
C#||---------| 




Tablature Legend 
---------------- 
 h   hammer-on 
 p   pull-off 
 b   bend 
 pb  pre-bend 
 r   release bend 
 ~   hold / vibrato 
 .   palm mute 
 /   slide up 
 \   slide down 
 *   pinch harmonic 
 '   natural harmonic 
 x   mute note 
 T   tap 
		  

Full key step upFull key step up
Half key step upHalf key step up
Half key step downHalf key step down
Full key step downFull key step down
hide glossary

See also:

tabs Fuel - Sunburn tabs Bush - Everything zen tabs Arctic Monkeys - Knee Socks tabs Tracy Chapman - Give Me One Reason tabs Arctic Monkeys - All My Own Stunts tabs Oasis - She´s Electric
e-chords

Other versions:

tabs Fuel - Soul To Preach To
auto scroll beats size up size down change color hide chords drawings
tab show chords e-chords YouTube Clip e-chords hide all tabs e-chords go to top tab

share