Fuel

King For A Day

Fuel

tabs

save to print version add songbook text version e-mail correct tuner
chordsukulelecavacokeyboardtabbassdrumsharmonicaflute Guitar Pro
close

there isn't a video lesson for this song

chords

King For A Day

	  		Guitarist:Carl Bell 
Tabbed By:Stephen Elliott 
 
This is the main solo in this song played on a traditional Acoustic Nylon String 
tuned in Standard (EADGBe) 
 
e---------------------------------8--10--12--12b-10--13b-12--8-8/10-10- 
B--5-6-5-3-3--3-5-6-8--12b-12--12-------------------------------------- 
G---------------------------------------------------------------------- 
D---------------------------------------------------------------------- 
A---------------------------------------------------------------------- 
E---------------------------------------------------------------------- 
 
e--8/10-10\\\--------------------------------8--10--12--12b-10--13b-12- 
B----------------5-6-5-3-3--3-5-6-8--12b--12--------------------------- 
G---------------------------------------------------------------------- 
D---------------------------------------------------------------------- 
A---------------------------------------------------------------------- 
E---------------------------------------------------------------------- 
 
e--8-8/10-10v----10-10-8---------------- 
B------------------------10-8-5--------- 
G--------------------------------7-5---- 
D-------------------------------------7- 
A--------------------------------------- 
E--------------------------------------- 
 
Questions,Comments? [email protected] 
 
Cheers! 
 

		  

See also:

tabs Blur - Song#2 Correct tabs Oasis - DonīT Go Away tabs Arctic Monkeys - Old Yellow Bricks tabs Arctic Monkeys - Knee Socks tabs Stone Temple Pilots - Sour Girl tabs Jethro Tull - To Cry You A Song
e-chords

Other versions:

tabs Fuel - King For A Day tabs Goldfinger - King for a Day
auto scroll beats size up size down change color hide chords drawings
tab show chords e-chords YouTube Clip e-chords hide all tabs e-chords go to top tab

share