Fu Manchu

Boogie Van

Fu Manchu

tabs Easy easy

by  HUGO_RODRIGUES

save to print version add songbook text version e-mail correct tuner
chordsukulelecavacokeyboardtabbassdrumsharmonicaflute Guitar Pro
close

there isn't a video lesson for this song

chords

Boogie Van

	  		


Like all Chu songs it's in Drop D 

E----------------------- -------------------------------------------------------| 
B--------------------------------------------- ---------------------------------| 
G-------------------------------------------------------------------------------| 
D--3--3---3--/--12------3--3---3--0------3--3---3--/--12------3--3---3--0-------| 
A--3--3---3--/--12------3--3---3--0------3--3---3--/--12------3--3---3--0-------| 
D--3--3---3--/--12------3--3---3--0------3--3---3--/--12------3--3---3--0-------| 

E-------------------------------------------------------------------------------| 
B-------------------------------------------------------------------------------| 
G-------------------------------------------------------------------------------| 
D------------------------------------------------------------5------------------| 
A------3--4--5-----5--4--3------------3--4--5-----5--4--3-----------------------| 
D--0--------------------------5----0--------------------------------------------| 

E------------------------------|------------------------------------------------| 
B------------------------------|------------------------------------------------| 
G------------------------------|------------------------------------------------| 
D------------------------------|------------------------------------------------| 
A--3--5-5---3--5-5---3-5-------|---3--5-5---3--5-5---3-5------------------------| 
D------------------------------|------------------------------------------------| 

Bob is playing with a slide in this part.  I'm not exactly sure about this but I think 
it's a little close. 

E---------------------------------------------------------------------------------| 
B--5--/--7------5----10------5--/--12------12----7--------------------------------| 
G--5--/--7------5----10------5--/--12------12----7--------------------------------| 
D--5--/--7------5----10------5--/--12------12----7--------------------------------| 
A---------------------------------------------------------------------------------| 
D---------------------------------------------------------------------------------| 

E-------------------------------------------------------------------------------| 
B-------------------------------------------------------------------------------| 
G-------------------------------------------------------------------------------| 
D--5--3-------------------------------------------------------------------------| 
A---------5--3------------------------------------------------------------------| 
D-----------------5--3--5---3--3-3--0-------------------------------------------| 
 
		  

Full key step upFull key step up
Half key step upHalf key step up
Half key step downHalf key step down
Full key step downFull key step down
hide glossary

See also:

tabs Drivin' N' Cryin' - Honeysuckle Blue tabs Ira! - Envelheço na Cidade tabs Deep Purple - Highway Star tabs Albert Hammond Jr - St. Justice tabs Ira! - Prisão das Ruas tabs Deep Purple - Sometimes a Feel Like Screaming
e-chords

Other versions:

tabs Fu Manchu - Boogie Van
auto scroll beats size up size down change color hide chords drawings
tab show chords e-chords YouTube Clip e-chords hide all tabs e-chords go to top tab

share