From Indian Lakes

We Are Afraid

From Indian Lakes

tabs

by  MARCNAGEL

save to print version add songbook text version e-mail correct tuner
chordsukulelecavacokeyboardtabbassdrumsharmonicaflute Guitar Pro
close

there isn't a video lesson for this song

chords

We Are Afraid

	  		


Verse: 
  (Listen to the song to figure out when you're supposed to change chords) 
E|--------------------|--------------|------------------|--------------------|-------------------- 
B|-----5-----5-----5--|-----0-----0--|-----2-----2---2--|-----2-----2-----2--|-----2-----2-----2-- 
G|-----6-----6-----6--|-----1-----1--|-----2-----2---2--|-----2-----2-----2--|-----2-----2-----2-- 
D|--7-----7-----7-----|--2-----2-----|--4-----4-----4---|--2-----2-----2-----|--0-----0-----0----- 
A|--------------------|--------------|------------------|--------------------|-------------------- 
E|--------------------|--------------|------------------|--------------------|-------------------- 

Chorus: 
  (Listen to the song to figure out when you're supposed to change chords) 
E|----------------------|--------------------|-------------------- 
B|-------2-----2-----2--|-----2-----2-----2--|-----2-----2-----2-- 
G|-------2-----2-----2--|-----2-----2-----2--|-----2-----2-----2-- 
D|----4-----4-----4-----|--2-----2-----2-----|--0-----0-----0-----  x2 
A|----------------------|--------------------|-------------------- 
E|----------------------|--------------------|-------------------- 

Finger pick and strumming part: 


  listen to rhythm and finger                  This is the strumming part :D (My favorite <3) 
E|-----------                                  |--x--|--x--     |--x--|--x--|--x-- 
B|--------5--                                  |--5--|--5--     |--2--|--2--|--2-- 
G|-----6-----                                  |--6--|--6--     |--2--|--2--|--2-- 
D|--7--------                                  |--7--|--0--     |--4--|--2--|--0-- 
A|-----------                                  |--0--|--0--     |--0--|--0--|--0-- 
E|-----------                                  |--x--|--x--     |--x--|--x--|--x-- 

                                               ^ Two different chords changes (listen for the  change) 

I'll tab out the rest of this later sorry :C 
		  

See also:

tabs Lasso - Te Veo tabs Dungen - Sol Och Regn tabs Keaton Henson - Sweetheart What Have You Done To Us Tab tabs Daughter - Still tabs Seahaven - Black White tabs From Indian Lakes - We Are Afraid
e-chords

Other versions:

tabs From Indian Lakes - We Are Afraid
auto scroll beats size up size down change color hide chords drawings
tab show chords e-chords YouTube Clip e-chords hide all tabs e-chords go to top tab

share