From Indian Lakes

The Man With Wooden Legs

From Indian Lakes

tabs

by  IRONPOWER4EVER

save to print version add songbook text version e-mail correct tuner
chordsukulelecavacokeyboardtabbassdrumsharmonicaflute Guitar Pro
close

there isn't a video lesson for this song

chords

The Man With Wooden Legs

	  		

Intro Rhythm: A little delay and reverb. 
e|-----------------------------------| 
B|-----------------------------------| 
G|------7------7------5p4------------| 
D|---5--5---5--5---5--5-------7------|  X4 
A|--7---7--5---5--3---3----7--7------| 
E|------------------------5---5------| 
Mess with that^ 

Play that in background. 
lead comes in at 0:17 
e|-----------------------------------| 
B|-----------------------------------| 
G|-----------------------------------| 
D|--16tp--14tp--12tp--10tp--9tp------|  X2 
A|-----------------------------------| 
E|-----------------------------------| 

Play with these chord forms until the guitar changes. 
Figure out the timing. 
e|-----------------------------------| 
B|-----------------------------------| 
G|---7---7---5p4h5-------------------| 
D|---5---5---5-------7---------------| 
A|---7---5---3-------7---------------| 
E|-------------------5---------------| 

Lead and rhythm transition piece.  
e|-----------------------------------| 
B|-----------------------------------| 
G|-----------------------------------| 
D|------5---7---9----12-9------------| 
A|--5-7---7---9---10------12-10------| 
E|-----------------------------------| 

Distortion build 
e|----------------------------------------| 
B|----------------------------------------| 
G|----------------------------------------| 
D|-10-10-10-10---10-10-10-10----5-----2---|  X4 
A|-10-10-10-10---10-10-10-10----5-----2---| 
E|-8--8--8--8----8--8--8--8-----3-----0---| 
 start distortion^ 

e|-----------------------------------| 
B|-----------------------------------| 
G|-----------------------------------| 
D|--2-2-2-2---2-2-2-2---5/7---------|   X4 
A|--2-2-2-2---2-2-2-2---5/7---------| 
E|--0-0-0-0---0-0-0-0---3/5----------| 

Back to Clean 
e|-----------------------------------| 
B|-----------------------------------| 
G|------7------7------5p4------------| 
D|---5--5---5--5---5--5-------7------|  X2 
A|--7---7--5---5--3---3----7--7------| 
E|------------------------5---5------| 

Distortion again 
e|-----------------------------------| 
B|-----------------------------------| 
G|-----------------------------------| 
D|--2-2---2-5-2----------------------|  X4 
A|--2-2---2-5-2----------------------| 
E|--0-0---0-3-0----------------------| 
         triplet 

Outro: 
e|-----------------------------------| 
B|-----------------------------------| 
G|-----------------------------------| 
D|---5-------------------------------| 
A|---7-------------------------------| 
E|-----------------------------------| 
play ^ lots      
then...                       
e|----------------------------|-------| 
B|----------------------------|-------| 
G|----------------------------|-------| 
D|---------44-------44--------|---5---| 
A|---55-77----55-77----55-75--|---7---| 
E|----------------------------|-------| 
 play a few times abruptly for end^ 
		  

See also:

tabs The Drills - Beautiful Apartment tabs Nina Nesbitt - Babylon tabs Daughter - All I Wanted tabs Daughter - Your Kisses tabs From Indian Lakes - I Don't Know You tabs Daughter - Amsterdam
e-chords

Other versions:

tabs From Indian Lakes - The Man With Wooden Legs
auto scroll beats size up size down change color hide chords drawings
tab show chords e-chords YouTube Clip e-chords hide all tabs e-chords go to top tab

share