From Indian Lakes

Sleeping Limbs (acoustic)

From Indian Lakes

tabs

by  LUCICAMARGO

save to print version add songbook text version e-mail correct tuner
chordsukulelecavacokeyboardtabbassdrumsharmonicaflute Guitar Pro
close

there isn't a video lesson for this song

chords

Sleeping Limbs (acoustic)

	  		 

 

verse 1 
e|------------------------| 
B|------------------------| 
G|------------------------| 
D|--0-0----0----0-0----0--|  Play 6x 
A|-2----2-2--2-2----2-2--2| 
E|2--2-2-3--3-0--0-0-1--1-| 

Chorus 
e|--------------------------------------------------------| 
B|---------------0-----0----------------------------------| 
G|--0-----0---------0----------0-------0-------0-----0----| 
D|-----0--------5--5--5--5---------0--------------0-------| 
A|-5--5--5--5--7--7--7--7----10--10--10--10---5--5--5--5--| 
E|3--3--3--3----------------8---8---8---8----3--3--3--3---| 

e|----------------------------------------------------| 
B|---------------0-----0------------------------------| 
G|--0-----0---------0---------0-----0------0-----0----| 
D|-----0--------5--5--5--5-------0------------0-------| 
A|-7--7--7--7--7--7--7--7----9--9--9--9---5--5--5--5--| 
E|5--5--5--5----------------7--7--7--7---3--3--3--3---| 

verse 2 (same as verse 1, play 4x) 

Chorus 

verse 3 (same as other verses, play 6x with slight variation on 2nd and 6th play throughs; seen below) 
2nd  
e|------------------------| 
B|------------------------| 
G|------------------------| 
D|--0-0----0----0-0----0--|    
A|-2----2-2--2-2----2-2---| 
E|2--2-2-3--3-0--0-0-1--x-|  The mute here also has a light slap with the picking thumb 

6th  
e|------------------------| 
B|------------------------| 
G|------------------------| 
D|--0-0----0----0-0-------|   
A|-2----2-2--2-2----2-----| 
E|2--2-2-3--3-0--0-0-1--x-|  Same slap-mute as above 

Chorus x2 (Ending on 2nd play through is a little different; see below) 
e|------------------------------------------------| 
B|------------------------------------------------| 
G|--0-----0-----0-----0-----0-----0-----0-----0---| 
D|-----0-----0-----0-----0-----0-----0-----0------| 
A|-5--5--5--5--5--5--5--5--5--5--5--5--5--5--5----| 
E|3--3--3--3--3--3--3--3--3--3--3--3--3--3--3--3\0| 
		  

See also:

tabs The Drills - Beautiful Apartment tabs Nina Nesbitt - Babylon tabs Daughter - All I Wanted tabs Daughter - Your Kisses tabs From Indian Lakes - I Don't Know You tabs Daughter - Amsterdam
e-chords

Other versions:

tabs From Indian Lakes - Sleeping Limbs (acoustic)
auto scroll beats size up size down change color hide chords drawings
tab show chords e-chords YouTube Clip e-chords hide all tabs e-chords go to top tab

share