save to print version add songbook text version e-mail correct tuner
chordsukulelecavacokeyboardtabbassdrumsharmonicaflute Guitar Pro
close

there isn't a video lesson for this song

chords

Neverenders

	  		

This is my second frnkiero andthe cellabration tab. The lead might need touching up but overall this tab is  
pretty accurate I think. 

Verse 

Guitar 1 (Rhythm) 

e|----------------------------------| 
B|----------------------------------| 
G|----------------------------------| 
D|-4-4-4-4-4-4-4-4-4-4-4-4--7--2----| x4 
A|-2-2-2-2-2-2-2-2-2-2-2-2--5--0----| 
E|----------------------------------| 

Guitar 2 (Lead) 

e|---------------------------------------------------------------------------| 
B|-7--4-4-4-4-4-4-4-4---4-4--4-4-----7--4-4-4-4-4-4-4-4----------------------| 
G|--------------------6---------------------------------6-6-4--4-4-----------| 
D|---------------------------------------------------------------------------| x2 
A|---------------------------------------------------------------------------| 
E|---------------------------------------------------------------------------| 

Chorus 

Guitar 1 (Rhythm) 

e|--------------------------------------| 
B|--------------------------------------| 
G|--------------------------------------| 
D|-4--4-4-4-4--4-4-4-4--4-4-4--7--2-----| x4 
A|-0-h2-2-2-0-h2-2-2-0-h2-2-2--5--0-----| 
E|--------------------------------------| 

Guitar 2 (Lead) 

e|-------------------5/7-7-7-----| 
B|-------------------------------| 
G|-8-8-6-8-8-6-8-8-6-------------| 
D|-------------------------------| x4 
A|-------------------------------| 
E|-------------------------------| 

verse 2 

Guitar 1 (Rhythm) 

e|--------------------------------| 
B|--------------------------------| 
G|--------------------------------| 
D|-4-4-4-4-4-4-4-4-4-4-4-4--7--2--| x4 
A|-2-2-2-2-2-2-2-2-2-2-2-2--5--0--| 
E|--------------------------------| 

Guitar 2 (Lead) 

e|---------------------------------------------------------------------------| 
B|-7--4-4-4-4-4-4-4-4---4-4--4-4-----7--4-4-4-4-4-4-4-4----------------------| 
G|--------------------6---------------------------------6-6-4--4-4-----------| 
D|---------------------------------------------------------------------------| x2 
A|---------------------------------------------------------------------------| 
E|---------------------------------------------------------------------------| 

Bridge 

Guitar 1 (Rhythm) 

e|-------------------------| 
B|-------------------------| 
G|-------------------------| 
D|-9--9-9-9-9--12------12--| x3 
A|-7--7-7-7-7--10--12--10--| 
E|-----------------10------| 

Guitar 2 (Lead) 

e|-/7-7-7-7-7-7--7-7-7-8-8-8---| 
B|-----------------------------| 
G|-----------------------------| 
D|-----------------------------| x3 
A|-----------------------------| 
E|-----------------------------| 

Guitars 1 & 2 (Rhythm & Lead) 

e|---------------------| 
B|---------------------| 
G|---------------------| 
D|-9--9-9-9-9----------| 
A|-7--7-7-7-7----------| 
E|-------------3-3/7~--| 

verse 3 

Guitar 1 (Rhythm) 

e|----------------------------------| 
B|----------------------------------| 
G|----------------------------------| 
D|-4-4-4-4-4-4-4-4-4-4-4-4--7--2----| x4 
A|-2-2-2-2-2-2-2-2-2-2-2-2--5--0----| 
E|----------------------------------| 

Guitar 2 (Lead) 

e|---------------------------------------------------------------------------| 
B|-7--4-4-4-4-4-4-4-4---4-4--4-4-----7--4-4-4-4-4-4-4-4----------------------| 
G|--------------------6---------------------------------6-6-4--4-4-----------| 
D|---------------------------------------------------------------------------| x2 
A|---------------------------------------------------------------------------| 
E|---------------------------------------------------------------------------| 

Chorus 2 

Guitar 1 (Rhythm) 

e|-----------------------------------------| 
B|-----------------------------------------| 
G|-----------------------------------------| 
D|-4--4-4-4-4--4-4-4-4--4-4-4--7--2--------| x4 
A|-0-h2-2-2-0-h2-2-2-0-h2-2-2--5--0--------| 
E|-----------------------------------------| 

Guitar 2 (Lead) 

e|-------------------5/7-7-7---------| 
B|-----------------------------------| 
G|-8-8-6-8-8-6-8-8-6-----------------| 
D|-----------------------------------| x4 
A|-----------------------------------| 
E|-----------------------------------| 

verse 4 

Guitar 1 (Rhythm) 

e|----------------------------------| 
B|----------------------------------| 
G|----------------------------------| 
D|-4-4-4-4-4-4-4-4-4-4-4-4--7--2----| x4 
A|-2-2-2-2-2-2-2-2-2-2-2-2--5--0----| 
E|----------------------------------| 

Guitar 2 (Lead) 

e|---------------------------------------------------------------------------| 
B|-7--4-4-4-4-4-4-4-4---4-4--4-4-----7--4-4-4-4-4-4-4-4----------------------| 
G|--------------------6---------------------------------6-6-4--4-4-----------| 
D|---------------------------------------------------------------------------| x2 
A|---------------------------------------------------------------------------| 
E|---------------------------------------------------------------------------| 

Bridge 2 

Guitar 1 (Rhythm) 

e|----------------------------| 
B|----------------------------| 
G|----------------------------| 
D|-9--9-9-9-9--12------12-----| x3 
A|-7--7-7-7-7--10--12--10-----| 
E|-----------------10---------| 

Guitar 2 (Lead) 

e|-/7-7-7-7-7-7--7-7-7-8-8-8---| 
B|-----------------------------| 
G|-----------------------------| 
D|-----------------------------| x3 
A|-----------------------------| 
E|-----------------------------| 

Guitars 1 & 2 (Rhythm & Lead) 

e|---------------------| 
B|---------------------| 
G|---------------------| 
D|-9--9-9-9-9----------| 
A|-7--7-7-7-7----------| 
E|-------------3-3/7~--| 

Bridge 3 

Bass 

G|---------------------------| 
D|-----------------------2-2-| 
A|-2-2-0-2-2-0-2-2-0-2-5-----| 
E|---------------------------| 

Guitar 2 (Lead) 

e|---------------------------------------------------------------| 
B|---------------------------------------------------------------| 
G|---------------------------------------7-----------------------| 
D|-9-9-9-7------------------7-9--9-9-9-7---7/9--9-9-9-9-9-9\-----| x2 
A|---------10-7--7-7-7-7-10--------------------------------------| 
E|---------------------------------------------------------------| 

e|---------------------------------------------------------------------------| 
B|---------------------------------------------------------------------------| 
G|-9-9-9-9-9-9-9-9-9-9-9-9--12--11--9-9-9-9-9-9-9-9-9-9-9--12--14------------| 
D|---------------------------------------------------------------------------|  
A|---------------------------------------------------------------------------| 
E|---------------------------------------------------------------------------| 

e|---------------------| 
B|---------------------| 
G|-9-9-9-9-9-9-9-9-9/0-| 
D|---------------------| 
A|---------------------| 
E|---------------------| 

Chorus 3 

Guitar 1 (Rhythm) 

e|----------------------------------| 
B|----------------------------------| 
G|----------------------------------| 
D|-4--4-4-4-4--4-4-4-4--4-4-4--7--2-| x4 
A|-0-h2-2-2-0-h2-2-2-0-h2-2-2--5--0-| 
E|----------------------------------| 

Guitar 2 (Lead) 

e|-------------------5/7-7-7--| 
B|----------------------------| 
G|-8-8-6-8-8-6-8-8-6----------| 
D|----------------------------| x4 
A|----------------------------| 
E|----------------------------| 

Guitar 1 (Rhythm) 

e|----| 
B|----| 
G|----| 
D|-4--|  
A|-2--| 
E|----| 


************************************ 

| /   slide up 
| \   slide down 
| h   hammer-on 
| p   pull-off 
| ~   vibrato 
| +   harmonic 
| x   Mute note 
| b   Bend 
| pb  Pre-bend 
| br  Bend release 
| pbr Pre-bend release 
| brb Bend release bend 

************************************ 
		  

See also:

tabs Ira! - Envelheço Na Cidade(Solo - Acustivo Mtv) tabs Deep Purple - No No No tabs Deep Purple - Black Night tabs Deep Purple - Smoke on the water(ver. 2) tabs Deep Purple - Since Youve Been Gone tabs Albert Hammond Jr - In My Room
e-chords

Other versions:

tabs Frnkiero And The Cellabration - Neverenders
auto scroll beats size up size down change color hide chords drawings
tab show chords e-chords YouTube Clip e-chords hide all tabs e-chords go to top tab

share