save to print version add songbook text version e-mail correct tuner
chordsukulelecavacokeyboardtabbassdrumsharmonicaflute Guitar Pro
close

there isn't a video lesson for this song

chords

Joyriding

	  		
Verse 0:05 - Clean 
e|--------------------------|------------------------------------------------| 
B|----Repeat 3 times--------|------------------------------------------------| 
G|--------------------------|------------------------------------------------| 
D|--------------------------|------------------------------------------------| 
A|--------------1(4x)-2(4x)-|--------------4~--------------------------------| 
E|--2(16x)-0(8x)------------|-2(16x)-0(8x)-----------------------------------| 

Chorus 0:26 - Distorted 
e|---------------------------------------------------------------------------| 
B|---------Repeat 2 times----------------------------------------------------| 
G|---------------------------------------------------------------------------| 
D|-4-----2-----8-------------------------------------------------------------| 
A|-4-----2-----8-------------------------------------------------------------| 
E|-2(8x)-0(4x)-6(4x)---------------------------------------------------------| 

Verse 0:37 - Clean 
e|--------------------------|------------------------------------------------| 
B|----Repeat 3 times--------|------------------------------------------------| 
G|--------------------------|------------------------------------------------| 
D|--------------------------|------------------------------------------------| 
A|--------------1(4x)-2(4x)-|--------------4~--------------------------------| 
E|--2(16x)-0(8x)------------|-2(16x)-0(8x)-----------------------------------|8 

0:46 Chirping - Clean (Play with a second guitar) Listen for the exact timing 
e|---------------------------------------------------------------------------| 
B|-191919--1919-19--19-------------------------------------------------------| 
G|---------------------------------------------------------------------------| 
D|---------------------------------------------------------------------------| 
A|---------------------------------------------------------------------------| 
E|---------------------------------------------------------------------------| 

Chorus 0:57 - Distorted 
e|---------------------------------------------------------------------------| 
B|---------Repeat 2 times----------------------------------------------------| 
G|---------------------------------------------------------------------------| 
D|-4-----2-----8-------------------------------------------------------------| 
A|-4-----2-----8-------------------------------------------------------------| 
E|-2(8x)-0(4x)-6(4x)---------------------------------------------------------| 

Bridge 1:09 - Distorted 
e|---------------------------------------------------------------------------| 
B|-----------------------------Do this 2 times-------------------------------| 
G|---------------------------------------------------------------------------| 
D|-6-------8--9--11----------------------------------------------------------| 
A|-6-(x6)--8--9--11-(x8)-----------------------------------------------------| 
E|-4-------6--7--9-----------------------------------------------------------| 

Chorus 1:19 - Distorted 
e|---------------------------------------------------------------------------| 
B|---------Repeat 5 times----------------------------------------------------| 
G|---------------------------------------------------------------------------| 
D|-4-----2-----8-------------------------------------------------------------| 
A|-4-----2-----8-------------------------------------------------------------| 
E|-2(8x)-0(4x)-6(4x)---------------------------------------------------------| 

It is hard to make these blend because there are 3 guitars in this part playing all 
of it so just try your best 

Outro 
e|---------------------------------------------------------------------------| 
B|---------------------------------------------------------------------------| 
G|---------------------------------------------------------------------------| 
D|----------------9~-8~------(x3)--------------------------------------------| 
A|-2(12x)-4(8x)----------9~--------------------------------------------------| 
E|---------------------------------------------------------------------------| 

 
		  

See also:

tabs Ira! - Envelheço Na Cidade(Solo - Acustivo Mtv) tabs Deep Purple - No No No tabs Deep Purple - Black Night tabs Deep Purple - Smoke on the water(ver. 2) tabs Deep Purple - Since Youve Been Gone tabs Albert Hammond Jr - In My Room
e-chords

Other versions:

tabs Frnkiero And The Cellabration - Joyriding
auto scroll beats size up size down change color hide chords drawings
tab show chords e-chords YouTube Clip e-chords hide all tabs e-chords go to top tab

share