Franz Ferdinand

Shopping For Blood

Franz Ferdinand

tabs

save to print version add songbook text version e-mail correct tuner
chordsukulelecavacokeyboardtabbassdrumsharmonicaflute Guitar Pro
close

there isn't a video lesson for this song

chords

Shopping For Blood

	  		Intro 
 
-------------------------------------------------------------------------------------------------------------------------------- 
-------------------------------------------------------------------------------------------------------------------------------- 
-------------------------------------------------------------------------------------------------------------------------------- 
-------------------------------------------------------------------------------------------------------------------------------- 
-----------------------------------------------------------10--10----6--6--------------------------------------------------- 
--------\-5-----------5--5--5--5--5--5--5------8--8------------------------7--8-\--5--5--3--5--5--3--5--5--3--5--5- 
 
-------------------------------------------------------------------------------------------------------------------------------- 
-------------------------------------------------------------------------------------------------------------------------------- 
-------------------------------------------------------------------------------------------------------------------------------- 
-------------------------------------------------------------------------------------------------------------------------------- 
----------10--10--6--6-----------------------------------------------------------------------------10------------10---10- 
-/-8--8--------------------7--8--\--5--5--5--3--5--5--3--5--5--3--5--5---/-8--8--8--8--8---------8--8--------8----- 
 
-------------------------------------------------------------------------------------------------------------------------------- 
-------------------------------------------------------------------------------------------------------------------------------- 
-------------------------------------------------------------------------------------------------------------------------------- 
-------------------------------------------------------------------------------------------------------------------------------- 
-------------------------------------------------------------------------------------------------------------------------------- 
-5--5--5--3--5--5--3--5--5--3--5--5-------------------------------------------------------------------------------------- 
 
 
Verse One 
 
C5 C5   C5 C5   C5 C5   C5 C5   C5   A5 AG   AG AG   AG AG   AG AG   (repeat 5x) 
 
1  I live in the merchant city, drive a 4 by 4 
2  I eat MnS?..it tastes.. Of ?nothing   
3  I taste of nothing???. 
4  I am the new Scottish gentry          Anglified vowels sub London thoughts 
5  I am the new Scottish gentry            Anglified vowels sub London Thoughts 
 
 
Chorus 
 
 
C5 C5   C5 C5   C5 C5   C5 C5   C5   A5 AG   AG AG   AG AG   AG AG  (repeat 2 x) 
 
    SO im shopping, shopping for blood, Oh Im shopping, shopping for blood  
 
 
C5  C5     D#5  D#5     F5  F5    D#5  D#5   (repeat 4 x, lyrics begin on 3rd time)   
 
Its leather for leisure and Velcro for sport    
It?s a first appearance and a new suit for court. 
 
 
 
Solo 
 
Ive not got the solo yet. After the solo you play the C5 A5
 riff a bit more then the verse starts again (this time the verse starts from the
 ?I am the new Scottish gentry? line, not from the very beginning. Then the chorus is
 played again to end the song. This is my first tab, so if its bad, sorry 
 

		  

Full key step upFull key step up
Half key step upHalf key step up
Half key step downHalf key step down
Full key step downFull key step down
hide glossary

See also:

tabs Franz Ferdinand - Tell Her Tonight tabs Franz Ferdinand - Michael tabs Teenage Fanclub - Catholic Education tabs Franz Ferdinand - Take Me Out (complete With Bass) tabs We Were Promised Jetpacks - Human Error tabs Franz Ferdinand - 40 Ft
e-chords

Other versions:

tabs Franz Ferdinand - Shopping For Blood
auto scroll beats size up size down change color hide chords drawings
tab show chords e-chords YouTube Clip e-chords hide all tabs e-chords go to top tab

share