Frankie Chavez

I Believe Ill Dust My Broom

Frankie Chavez

tabs

by  ROBEPOIEL

save to print version add songbook text version e-mail correct tuner
chordsukulelecavacokeyboardtabbassdrumsharmonicaflute Guitar Pro
close

there isn't a video lesson for this song

chords

I Believe Ill Dust My Broom

	  		Intro: 

  Dm                                    
e|-------------------1---|----------------------| 
B|---3---3p1---3---3---1-|---3---3p1----3-------| 
G|---2-------2-2-2-------|---2--------2-2-------| x4 
D|-----------------------|----------------------| 
A|-----------------------|----------------------| 
D|-0---x-----------------|-0---x------------x---| 


Verse:  x3 

  Dm                         G   F G              
e|-------------------1---|----------------------| 
B|---3---3p1---3---3---1-|-------?--------------| 
G|---2-------2-2-2-------|---4---2-4-?----------| 
D|-----------------------|---5---3-5------------| 
A|-----------------------|---5---3-5------------| 
D|-0---x-----------------|-5-5-x-3-5------x-x---| 

"I?m gonna get ...."            "I believe..." 
                                                  
  Dm                                              
e|-------------------1---|----------------------| 
B|---3---3p1---3---3---1-|---3---3p1----3-------| 
G|---2-------2-2-2-------|---2--------2-2-------| 
D|-----------------------|----------------------| 
A|-----------------------|----------------------| 
D|-0---x-----------------|-0---x------------x---| 
                                                                                            
  G     F  ....                                   
e|-----------------------|----------------------|      
B|-------?-------?-------|-------?-------?------|      
G|----4---2-------4---2--|----4---2-------4---2-|      
D|----5---3-------5---3--|----5---3-------5---3-|      
A|----5---3-------5---3--|----5---3-------5---3-|      
D|-5------3----5---------|-5------3----5--------|      

"I?m gonna get up..."     "I believe..." 
                                                  
  Dm                                              
e|-------------------1---|----------------------| 
B|---3---3p1---3---3---1-|---3---3p1----3-------| 
G|---2-------2-2-2-------|---2--------2-2-------| 
D|-----------------------|----------------------| 
A|-----------------------|----------------------| 
D|-0---x-----------------|-0---x------------x---|                                                
   A                 G                            
e|-----------------------|----------------------|        
B|-----------------------|----------------------|        
G|-----------------------|---6/7--5-------------|        
D|-7--7--7--7--7--7--7\5-|-5--------7\-0-4h5-3-0|        
A|-7--7--7--7--7--7--7\5-|-5--------------------|        
D|-7--7--7--7--7--7--7\5-|-5--------------------|   

"If I can?t find...."  "She must be..."      
                                                  
  Dm                        A                    
e|-------------------1----|-----------------------|     
B|---3---3p1---3---3--3p1-|-----------------------|     
G|---2-------2-2-2-------2|-----------------------|     
D|------------------------|-7--7--7--7--7--7--7\0-|     
A|------------------------|-7--7--7--7--7--7--7\0-|    
D|-0---x------------------|-7--7--7--7--7--7--7\0-| 
     
                                                  
Solo: 
Chord Progression (in case you just wanna strum it. 1 Bar each): 

Dm G Dm Dm G G Dm Dm A G Dm A 

  Dm                    G              Dm               Dm 
e|--------------------|--------------|----------------|------------------------------| 
B|--------------------|--------------|----/8----6---6-|------------6-8-/10-8\6-8-6---| 
G|----7-5-------------|--------------|------------7---|-7\5-7-7-5-7----------------7-| 
D|--0----7-5------7---|--------------|---0------------|------------------------------| 
A|----------8-5-8---8-|-------5--8---|----------------|------------------------------| 
D|-0------------------|-5--9---------|-0--------------|------------------------------| 

  G               G                   Dm                    Dm 
e|--------------|-------------------|---------------------|--------------------------| 
B|--------------|-------------------|---------------------|--------------------------| 
G|--------------|-------------------|---------------------|--------------------------| 
D|--------------|-------------------|----------------3p0--|----------3-5-5/7-5\3-5---| 
A|--------5-----|---0-2-3--2p0-2p0--|--0-3-3-3-3p0------3-|-5--5-3-5---------------5-| 
D|-5---9-----8--|-9---------------5-|-0------------3------|--------------------------| 

   A(var)               G(Var)                   Dm                A                
e|-----------5--------|------------3-----------|-----------------|--------3/5-5------| 
B|---------5---8-7-5--|----------3---6-5-3h5p3-|---3-1-1-0-0-----|--------3/5--------| 
G|-----6--------------|------4-----------------|-------------3-3-|-2-2-2-------------| 
D|---7---7------------|----5---5---------------|-----------------|-------------------| 
A|--------------------|------------------------|-----------------|-0---0-------------| 
D|-7------------------|-5----------------------|-0---0---0---0---|---------------x---| 


Verse:  (x1) 
Same idea, with some changes and fills this time. 

  Dm                       G     F G                                              
e|-----------------------|----------------------| 
B|---3---3p1---3---------|-------?--------------|        
G|---2-------2-2---------|---4---2-4-?----------| 
D|-----------------------|---5---3-5------------| 
A|-----------------------|---5---3-5------------| 
D|-0---x-----------x--3--|-5-5-x-3-5-------x----| 
                                                 
  Dm                       Dm                    
e|-------------------3-1-|----------------------| 
B|---3-----1---3---3-----|---3---3p1----3-------| 
G|---2-------2-2---------|---2--------2-2-------| 
D|-----------------------|-----0----------------| 
A|-----------------------|----------------------| 
D|-0---x---------x-------|-0----------------x---| 
        
                                         
     G   F  ....            G7  F7                 
e|---------------------3-|--------------------5-| 
B|-------?------?--------|---5---3-5------------| 
G|------4---2-4----2/4---|---0---0-0------5/7---| 
D|------5---3-5----------|----------------------| 
A|------5---3-5----------|----------------------| 
D|-x-3--5-x---3-5--------|-5---x-3-5------------| 

   Dm(var)                   Dm (var)                         
e|-----------------/10-8-|----------------------| 
B|-----------------------|----------------------| 
G|---7---7p5---7---7-----|---7---7p5---7--------| 
D|---7-------7-7--7------|---7-------7-7--------| 
A|-----------------------|----------------------| 
D|-0---x-----------------|-0---x------------x---|                                      
                                                 
   A                   G   
e|-----------------------|-----------------------| 
B|-----------------------|-----------------------|       
G|-----------------------|---6/7--5--------------|       
D|-7--7--7--7--7--7--7\5-|-5---------7\-0-4h5-3-0|       
A|-7--7--7--7--7--7--7\5-|-5---------------------|       
D|-7--7--7--7--7--7--7\5-|-5---------------------|       
                                                 
  Dm                       A                    
e|------------------1----|-----------------------|    
B|---3--3p1---3---3--3p1-|-----------------------|    
G|---2------2-2-2-------2|-----------------------| 
D|-----------------------|-7-7-7-7-7-7-7\0-------|    
A|-----------------------|-7-7-7-7-7-7-7\0-------|    
D|-0---x-----------------|-7-7-7-7-7-7-7\0-------|    

  Dm                         G   F G                     
e|-------------------1---|-----------------------| 
B|---3---3p1---3---3---1-|-------?---------------| 
G|---2-------2-2-2-------|---4---2-4-?--------2--| 
D|-----------------------|---5---3-5----------3--| 
A|-----------------------|---5---3-5----------3--| 
D|-0---x-----------------|-5-5-x-3-5--------x-3--| 
                                                 
  Dm                         Dm                          
e|-------------------1---|-----------------------| 
B|---3---3p1---3---3---1-|---3---3p1----3--------| 
G|---2-------2-2-2-------|---2--------2-2--------|  
D|-----------------------|-----------------------| 
A|-----------------------|-----------------------| 
D|-0---x-----------------|-0---x------------x----| 
                                                 


      G   F  ....                                  
e|-----------------------|-----------------------|     
B|-------?-------?-------|-------?-------?-------|     
G|----4---2-------4---2--|----4---2-------4---2--|     
D|----5---3-------5---3--|----5---3-------5---3--|     
A|----5---3-------5---3--|----5---3-------5---3--|     
E|-5------3----5---------|-5------3----5---------|     
                                                 
  Dm                                             
e|-------------------3-1-|-----------------------| 
B|---3-----1---3---3-----|---3---3p1----3--------| 
G|---2-------2-2-2-------|---2--------2-2--------| 
D|-----------------------|-----------------------| 
A|-----------------------|-----------------------| 
D|-0---x-----------------|-0---x------------x----| 


Outro: 

  A                    G 
e|-----------------------|-----------------------| 
B|-----------------------|----/8--6--------------| 
G|-----------------------|-----------7--5--------| 
D|-7--7--7--7--7--7--7\5-|-5---------------7-----| 
A|-7--7--7--7--7--7--7\5-|-5------------------8--| 
D|-7--7--7--7--7--7--7\5-|-5---------------------| 

    Dm(var)                    Dm(var)      
e|-----------------|--------------|--------------| 
B|-----------------|------------6-|------6\------| 
G|----7----7---7---|------------7-|------7\------| 
D|----7----7---7---|------------7-|------7\------| 
A|-----------------|-0-2-4-5----5-|------5\------| 
D|-0-----4---5---6-|---------0----|--------------| 

 
		  

Full key step upFull key step up
Half key step upHalf key step up
Half key step downHalf key step down
Full key step downFull key step down
auto scroll beats size up size down change color hide chords drawings
tab show chords e-chords YouTube Clip e-chords hide all tabs e-chords go to top tab

share