Francisco Tárrega

home > Francisco Tárrega

Adelita Tab

Francisco Tárrega

Difficulty: ExpertExpert

by Mago8000

tuner correct add songbook print version text version save to e-mail
chordsukulelecavacokeyboardtabbassdrumsharmonicsflute Guitar Pro
chords

Adelita

  		Guitar 
 
 
 
                                                                  
E||---12h-11--7---------|--10h-8-------------|--8h-7------------| 
B||----------------8----|---------7----------|-------------8----| 
G||*---------------9----|--------------9-----|--------8----8----| 
D||*--------------------|--------------10----|-------------7----| 
A||---------------------|--0-----------------|------------------| 
E||---0-----------------|--------------------|--7---------------| 
 
 
                                                                 
------0-----0-----7--|--12h-11--7---------|--10h-8-------------| 
--7-7----0-----8-----|---------------8----|---------7----------| 
---------------------|---------------9----|--------------9-----| 
---------------------|--------------------|--------------10----| 
---------------------|--------------------|--0-----------------| 
----0----------------|--0-----------------|--------------------| 
 
 
                                                                                
--8--7------------|-----------------||---4-------7--------|--4-------7--------| 
-------------8----|--5--------------||--------5-----5--7--|-------5-----5--7/-| 
--------8----8----|--4-------------*||*-------------6-----|-------------6-----| 
-------------7----|--5-------------*||*-------6-----------|-------6-----------| 
------------------|-----------------||--------------0-----|-------------0-----| 
--7---------------|-------0---------||---0----------------|--0----------------| 
 
 
                                                                      
-----7--12--11--11-11-9--|--9h9-7---------------|-------0-----0-----| 
--9----------------------|---------10--7--------|-------0-----2-----| 
-------------------9-----|----8-----------8-----|--1-------4--------| 
-------------------------|----7--------------9--|-------------2--4/-| 
-------------------9-----|----------------------|-------------0-----| 
--0----------------------|----7-----------------|--0----------------| 
 
 
                                                             
--------4-----0h0----|------------------|--0--------------|| 
-----0-----4---------|--0---2/0----4----|--0--------------|| 
------------------3--|------2/1----2----|--1-------------*|| 
--6------------------|-------------4----|--2-------------*|| 
---------------------|--2----------2----|-----------------|| 
--0------------------|------------------|-------0---------|| 
 
 
                                                              
--12h-11--7---------|--10h-8-------------|--8h-7------------| 
---------------8----|---------7----------|-------------8----| 
---------------9----|--------------9-----|--------8----8----| 
--------------------|--------------10----|-------------7----| 
--------------------|--0-----------------|------------------| 
--0-----------------|--------------------|--7---------------| 
 
 
                                                                 
------0-----0-----7--|--12h-11--7---------|--10h-8-------------| 
--7-7----0-----8-----|---------------8----|---------7----------| 
---------------------|---------------9----|--------------9-----| 
---------------------|--------------------|--------------10----| 
---------------------|--------------------|--0-----------------| 
----0----------------|--0-----------------|--------------------| 
 
 
                                      
--8--7------------|----------------|| 
-------------8----|--5-------------|| 
--------8----8----|--4-------------|| 
-------------7----|--5-------------|| 
------------------|----------------|| 
--7---------------|-------0--------|| 
 
 
 

	  

Search Paypal
auto scroll beats size up size down change color hide chords drawings
tab show chords e-chords YouTube Clip e-chords hide all tabs e-chords go to top tab