Forgotten Tomb

Entombed By Winter

Forgotten Tomb

tabs

by  ALYSLIMA

save to print version add songbook text version e-mail correct tuner
chordsukulelecavacokeyboardtabbassdrumsharmonicaflute Guitar Pro
close

there isn't a video lesson for this song

chords

Entombed By Winter

	  		
^=artificial harmonic 

Intro 
   1  +  2  +  3  +  4  +  5  +  6  +   1  +  2  +  3  +  4  +  5  +  6  + 
B ------------------------------------|------------------------------------| 
Gb------------------------------------|----------0-----------------0-------| 
D -------0-----0-----------0-----0----|-------5-----5--2--------5----------| 
A ----2-----2-----2-----2-----2----2--|----2-----------------2-------------| 
E ------------------------------------|-0-----------------0----------------| x6 
B -0-----------------0----------------|------------------------------------| 

   1  +  2  +  3  +  4  +  5  +  6  + 
B ------------------------------------| 
Gb------------------------------------| 
D -------0--3--0-----------0--3--0----| 
A ----3-----------3-----2-----------2-| 
E -1-----------------0----------------| 
B ------------------------------------| x3 

   1  +  2  +  3  +  4  +  5  +  6  + 
B ------------------------------------| 
Gb------------------------------------| 
D -------0--3--0----------------------| 
A ----3-----------3-------------------| 
E -1--------------------5--4-----5--4-| 
B -------------------3--------2-------| 


Part A 
   1   +   2   +   3   +   4   +    1   +   2   +   3   +   4   + 
B --------------------------------|--------------------------------| 
Gb--------------------------------|--------------------------------| 
D -----------------0--------------|-----------------0--------------| 
A -----------------0--------------|-----------------0--------------| 
E -2------------------------------|-4------------------------------| 
B -0------------------------------|-2------------------------------| 

   1   +   2   +   3   +   4   +    1   +   2   +   3   +   4   + 
B --------------------------------|--------------------------------| 
Gb--------------------------------|--------------------------------| 
D -----------------0--------------|-----------------0-------0------| 
A -----------------0--------------|-----------------0-------0------| 
E -2------------------------------|-4---------------------------3--| 
B -0------------------------------|-2---------------------------1--| 

   1   +   2   +   3   +   4   +    1   +   2   +   3   +   4   + 
B --------------------------------|--------------------------------| 
Gb--------------------------------|--------------------------------| 
D -----------------0--------------|-----------------0--------------| 
A -----------------0--------------|-----------------0--------------| 
E -2------------------------------|-4------------------------------| 
B -0------------------------------|-2------------------------------| 

   1   +   2   +   3   +   4   +    1   +   2   +   3   +   4   + 
B --------------------------------|--------------------------------| 
Gb--------------------------------|--------------------------------| 
D -----------------0--------------|--------------------------------| 
A -----------------0--------------|--------------------------------| 
E -2------------------------------|-4---------------3--------------| 
B -0------------------------------|-2---------------1--------------| 


Part A1 (this is the overdubbed clean guitar) 
   1   +   2   +   3   +   4   +    1   +   2   +   3   +   4   + 
B --------------------------------|--------------------------------| 
Gb--------------------------------|--------------------------------| 
D -----------------0--------------|-----------------0--------------| 
A ---------2----------------------|--------------------------------| 
E --------------------------------|---------4----------------------| 
B -0------------------------------|-2------------------------------| 

   1   +   2   +   3   +   4   +    1   +   2   +   3   +   4   + 
B --------------------------------|--------------------------------| 
Gb--------------------------------|--------------------------------| 
D -----------------0--------------|---------0---------------0------| 
A ---------2----------------------|---------4---------------3------| 
E --------------------------------|--------------------------------| 
B -0------------------------------|-2---------------1--------------| 


Part B 
   1  +  2  +  3  +  4  +  5  +  6  +   1  +  2  +  3  +  4  +  5  +  6  + 
B ------------------------------------|-------0-----0----------------------| 
Gb-------0-----0-----------0-----0----|----------0-----0--------0-----0----| 
D ----------2-----2-----------2-----2-|----------------------------2-----2-| 
A ------------------------------------|------------------------------------| 
E -0-----------------0----------------|-3-----------------2----------------| 
B ------------------------------------|------------------------------------| 

   1  +  2  +  3  +  4  +  5  +  6  +   1  +  2  +  3  +  4  +  5  +  6  + 
B ------------------------------------|-------0-----0----------------------| 
Gb-------0-----0-----------0-----0----|----------0-----0--------0-----0----| 
D ----------2-----2-----------2-----2-|----------------------------2-----2-| 
A ------------------------------------|------------------------------------| 
E -0-----------------0----------------|-3-----------------5----------------| 
B ------------------------------------|------------------------------------| 


Part C 
   1  +  2  +  3  +  4  +  5  +  6  +   1  +  2  +  3  +  4  +  5  +  6  + 
B ------------------------------------|------------------------------------| 
Gb------------------------------------|------------------------------------| 
D ------------------------------------|------------------------------------| 
A ------------------------------------|------------------------------------| 
E -4--4--4--4--4--4--4--4--4--4--4--4-|-5--5--5--5--5--5--2--2--2--2--2--2-| 
B -2--2--2--2--2--2--2--2--2--2--2--2-|-3--3--3--3--3--3--0--0--0--0--0--0-| x4 

   1  +  2  +  3  +  4  +  5  +  6  +   1  +  2  +  3  +  4  +  5  +  6  + 
B ------------------------------------|------------------------------------| 
Gb------------------------------------|------------------------------------| 
D ------------------------------------|------------------------------------| 
A ----------------------------5-------|------------------------------------| 
E -2-----2-----------2-----2-----5--5-|-5--5--5--5--5--5--4--4--4--7--7--7-| 
B -0-----0--3--3--3--0-----0----------|-3--3--3--3--3--3--2--2--2--5--5--5-| 
            ^  ^  ^           ^  ^  ^ 

   1  +  2  +  3  +  4  +  5  +  6  +   1  +  2  +  3  +  4  +  5  +  6  + 
B ------------------------------------|------------------------------------| 
Gb------------------------------------|------------------------------------| 
D ------------------------------------|------------------------------------| 
A ------------------------------------|------------------------------------| 
E -2-----2-----------2-----2----------|-4--4--4--4--4--4--5--5--5--4--4--5-| 
B -0-----0--3--3--3--0-----0--3--3--3-|-2--2--2--2--2--2--3--3--3--2--2--2-| 
            ^  ^  ^           ^  ^  ^ 

   1  +  2  +  3  +  4  +  5  +  6  +   1  +  2  +  3  +  4  +  5  +  6  + 
B ------------------------------------|------------------------------------| 
Gb------------------------------------|------------------------------------| 
D ----------0-----0-----------0-----0-|----------0-----0-------------------| 
A -------------4-----------------4----|-------------4-----------0--------0-| 
E -2-----2-----------2-----2----------|----5-----------------4--------7----| 
B -0-----0--3--3--3--0-----0----------|-3-----3-----------2--------5-------| 

   1  +  2  +  3  +  4  +  5  +  6  +   1  +  2  +  3  +  4  +  5  +  6  + 
B ------------------------------------|------------------------------------| 
Gb------------------------------------|------------------------------------| 
D ----------0-----0-----------0-----0-|----------0-----0-------------------| 
A -------------4-----------------4----|-------------4-----------0--------0-| 
E -2-----2-----------2-----2----------|----4-----------------5--------4----| 
B -0-----0-----------0-----0----------|-2-----2-----------3--------2-------| 


Part C1 (this is the overdubbed clean guitar) 
   1  +  2  +  3  +  4  +  5  +  6  +   1  +  2  +  3  +  4  +  5  +  6  + 
B ------------------------------------|------------------------------------| 
Gb------------------------------------|------------------------------------| 
D ----------0-----------------0-------|----------0-----------------0-------| 
A ----------4-----------------4-------|----------4-----------------4-------| 
E ----4-----------------4-------------|----5-----------------2-------------| 
B -2-----2-----------2-----2----------|-3-----3-----------0-----0----------| x2 


Part D 
   1   +   2   +   3   +   4   +    1   +   2   +   3   +   4   + 
B --------------------------------|--------------------------------| 
Gb---------4---------------4------|---------3---------------3------| 
D -----5-------5-------5-------5--|-----4-------4-------4-------2--| 
A -3---------------3--------------|-2---------------2--------------| 
E --------------------------------|--------------------------------| x4 
B --------------------------------|--------------------------------| 

   1   +   2   +   3   +   4   +    1   +   2   +   3   +   4   + 
B --------------------------------|--------------------------------| 
Gb-------------0------------------|-------------0------------------| 
D ---------5-------5--------------|---------5-------5--------------| 
A -----7---------------7-------7--|-----5---------------5-------5--| 
E -5-----------------------5------|-3-----------------------3------| x3 
B --------------------------------|--------------------------------| 

   1   +   2   +   3   +   4   +    1   +   2   +   3   +   4   + 
B --------------------------------|--------------------------------| 
Gb-------------0------------------|--------------------------------| 
D ---------5-------5--------------|---------5----------------------| 
A -----7---------------7-------7--|-----5--------------------------| 
E -5-----------------------5------|-3------------------------------|x1 
B --------------------------------|--------------------------------| 


Part E 
   1   +   2   +   3   +   4   +    1   +   2   +   3   +   4   + 
B --------------------------------|--------------------------------| 
Gb--------------------------------|--------------------------------| 
D ---------4---------------4------|---------4---------------4------| 
A -----5-------5-------5-------5--|-----4-------4-------4-------4--| 
E -3---------------3--------------|-2---------------2--------------| x4 
B --------------------------------|--------------------------------| 

   1   +   2   +   3   +   4   +    1   +   2   +   3   +   4   + 
B --------------------------------|--------------------------------| 
Gb-------------0------------------|-------------0------------------| 
D ---------5-------5--------------|---------5-------5--------------| 
A -----7---------------7-------7--|-----5---------------5-------5--| 
E -5-----------------------5------|-3-----------------------3------| x4 
B --------------------------------|--------------------------------| 

   1   +   2   +   3   +   4   +    1   +   2   +   3   +   4   + 
B --------------------------------|--------------------------------| 
Gb-------------0------------------|-------------0------------------| 
D ---------4---------------4------|---------4---------------4------| 
A -----5-----------------------5--|-----4-----------------------4--| 
E -3-------------------3----------|-2-------------------2----------| x4 
B --------------------------------|--------------------------------| 

   1   +   2   +   3   +   4   +    1   +   2   +   3   +   4   + 
B --------------------------------|--------------------------------| 
Gb--------------------------------|--------------------------------| 
D ---------2---3---2-------2------|---------2---3---2-------2------| 
A -----3---------------3-------3--|-----2---------------2-------3--| 
E -1------------------------------|-0------------------------------| x4 
B --------------------------------|--------------------------------| 


Part F 
   1   +   2   +   3   +   4   +    1   +   2   +   3   +   4   + 
B --------------------------------|--------------------------------| 
Gb--------------------------------|--------------------------------| 
D --------------------------------|--------------------------------| 
A --------------------------------|--------------------------------| 
E -2------------------------------|-4---------------5--------------| 
B -0------------------------------|-2---------------3--------------| x4 

   1   +   2   +   3   +   4   +    1   +   2   +   3   +   4   + 
B --------------------------------|--------------------------------| 
Gb--------------------------------|--------------------------------| 
D --------------------------------|--------------------------------| 
A --------------------------------|--------------------------------| 
E -2---2---2---2---2---2---2---2--|-4---4---4---4---5---5---5---5--| 
B -0---0---0---0---0---0---0---0--|-2---2---2---2---3---3---3---3--| x4 


End 
   1  +  2  +  3  +  4  +  5  +  6  + 
B ------------------------------------| 
Gb------------------------------------| 
D ------------------------------------| 
A ------------------------------------| 
E -2----------------------------------| 
B -0----------------------------------| 


 
		  

See also:

tabs Forgotten Tomb - Entombed By Winter tabs Hopes Die Last - Never Trust The Hazel Eyed tabs Vanilla Sky - Just Dance tabs Vanilla Sky - 1981
e-chords

Other versions:

tabs Forgotten Tomb - Entombed By Winter
auto scroll beats size up size down change color hide chords drawings
tab show chords e-chords YouTube Clip e-chords hide all tabs e-chords go to top tab

share