Foo Fighters

home > Foo Fighters

Everlong (acústico) Tab

Foo Fighters

Difficulty: BeginnerBeginner

tuner correct add songbook print version text version save to e-mail
chordsukulelecavacokeyboardtabbassdrumsharmonicsflute Guitar Pro
chords

Everlong (acústico)

	   
Intro/Verse  
e|----------------------------------------------------------------------| 
B|----------------------------------------------------------------------| 
G|------11---11-11-11-----11--11-11-----11---11-11-----11---11-11-11-11-| 
D|------11---11-11-11-----11--11-11-----11---11-11-----11---11=11-11-11-| 
A|------9----9--9--9------9---9--9------9----9--9------9----9--9--9--9--| 
D|--0-0----0----------0-0---0-------9-9----9-------9-9----9-------------| 
 
e|--------------------------------------------------------------------| 
B|--------------------------------------------------------------------| 
G|------7-7-7-7-7-7-7------11-11-11-11-11-11-11-11-11-11-11-11-11-11--| 
D|------7-7-7-7-7-7-7------11-11-11-11-11-11-11-11-11-11-11-11-11-11--| 
A|------5-5-5-5-5-5-5------9--9--9--9--9--9--9--9---9--9--9--9--9--9--| 
D|--5-5-----5---5------9-9-------9--9--------9--9---------9--9--------| 
 
 
Riff - At some point in the song I think dave plays this once 
e|------------------------------| 
B|------------------------------| 
G|-----9--9-----9--9--9--11-9---| 
D|-----11-11----11-11-11-11-11--| 
A|-----9--9-----9--9--9--9--9---| 
D|-0-0------0-0-----------------| 
 
 
Pre-Chorus 
e|-----------------------------------------------------| 
B|-----------------------------------------------------| 
G|-----------------------------------------------------| 
D|--0-0-0/0-0-0/0-0-0/0--0--0//0--0--0/---7-7-7-7-7-7--| 
A|--4-4-4/5-5-5/7-7-7/9--9--9//10-10-10/--7-7-7-7-7-7--| 
D|----------------------------------------7-7-7-7-7-7--| 
 
 
Chorus 
e|--------------------------------------------------------| 
b|--------------------------------------------------------| 
g|---------------------------7-7-7-7--7-7--7-7-7-7--7-7-7-| 
d|--9-9--9-9-9--5-5-5-5--5-5-7-7-7-7--7-7--7-7-7-7--7-7-7-| 
a|--9-9--9-9-9--5-5-5-5--5-5-5-5-5-5--5-5--5-5-5-5--5-5-5-| 
D|--9-9--9-9-9--5-5-5-5--5-5------------------------------| 
 (2X) 
 
  PM----| 
e|----------------------------------------------------------------------| 
B|----------------------------------------------------------------------| 
G|--------------------------7-7-7-7--7-7--------------------------------| 
D|-9-9--9-9-9--5-5-5-5--5-5-7-7-7-7--7-7--7--7-7--7-7---5-5--5--5-5-5-5-| 
A|-9-9--9-9-9--5-5-5-5--5-5-5-5-5-5--5-5--7--7-7--7-7---5-5--5--5-5-5-5-| 
D|-9-9--9-9-9--5-5-5-5--5-5---------------7--7-7--7-7---5-5--5--5-5-5-5-| 
 
  PM----| 
e|------------------------------| 
B|------------------------------| 
G|------------------------------| 
D|-5--5-5-5-5--5--5-5-5-5--5-5--| 
A|-5--5-5-5-5--5--5-5-5-5--5-5--| 
D|-5--5-5-5-5--5--5-5-5-5--5-5--| 
 
 
Breakdown 
 
 
Play Intro/Verse then this one. 
 
e|-----------------------------------------------------| 
B|-----------------------------------------------------| 
G|-----------------------------------------------------| 
D|--0-0-0/0-0-0/0-0-0/0--0--0//0--0--0/---7-7-7-7-7-7--| 
A|--4-4-4/5-5-5/7-7-7/9--9--9//10-10-10/--7-7-7-7-7-7--| 
D|----------------------------------------7-7-7-7-7-7--| 
(4x)
	  

there isn't a video lesson for this song

request
Search
auto scroll beats size up size down change color hide chords drawings
tab show chords e-chords YouTube Clip e-chords hide all tabs e-chords go to top tab