Folkslave

Nação

Folkslave

tabs

by  MARCNAGEL

save to print version add songbook text version e-mail correct tuner
chordsukulelecavacokeyboardtabbassdrumsharmonicaflute Guitar Pro
close

there isn't a video lesson for this song

chords

Nação

(Johnny Blaze)

	  		
Afinação: Eb Ab Db Gb Bb Eb
		

Pista 1
        Intro
      S S     S S S S S S S S S S S S S S    S S S S S S S S S S S S S S S S
D#||--------------------------------------|----------------------------------|
A#||--------------------------------------|----------------------------------|
F#||--------------------------------------|----------------------------------|
C#||--------------------------------------|----------------------------------|
G#||--------------------------------------|----------------------------------|
D#||--0-0-----3-0-0-5-0-0-6-0-0-3-5-0-3-5-|--0-0-3-0-0-5-0-0-6-0-0-3-5-0-3-5-|


  S S S S S S S S S S S S S S S S    S S S S S S S S S S S S S S S S
----------------------------------|----------------------------------|
----------------------------------|----------------------------------|
----------------------------------|----------------------------------|
----------------------------------|----------------------------------|
----------------------------------|----------------------------------|
--0-0-3-0-0-5-0-0-6-0-0-3-5-0-3-5-|--0-0-3-0-0-5-0-0-6-0-0-3-5-0-3-5-|


      Riff 1
  S S S      S S S S S S S S S S S S S    S S S S S S S S S S S S S S S S
---------------------------------------|----------------------------------|
---------------------------------------|----------------------------------|
---------------------------------------|----------------------------------|
---------------------------------------|----------------------------------|
--2-2-5------2-2-7-2-2-8-2-2-5-7-2-5-7-|--2-2-5-2-2-7-2-2-8-2-2-5-7-2-5-7-|
--0-0-3------0-0-5-0-0-6-0-0-3-5-0-3-5-|--0-0-3-0-0-5-0-0-6-0-0-3-5-0-3-5-|


  S S S S S S S S S S S S S S S S    S S S S S S S S S S S S S S S S
----------------------------------|----------------------------------|
----------------------------------|----------------------------------|
----------------------------------|----------------------------------|
----------------------------------|----------------------------------|
--2-2-5-2-2-7-2-2-8-2-2-5-7-2-5-7-|--2-2-5-2-2-7-2-2-8-2-2-5-7-2-5-7-|
--0-0-3-0-0-5-0-0-6-0-0-3-5-0-3-5-|--0-0-3-0-0-5-0-0-6-0-0-3-5-0-3-5-|


  Verso
  S     S S S S  S S S  S S S S S  S S  S
------------------------------------------|
------------------------------------------|
------------------------------------------|
------------------------------------------|
--2-----2-2-2-5--0-2-7--2-2-2-2-8--2-9-11-|
--0-----0-0-0-3p-0-0-5p-0-0-0-0-6p-0-7--9-|


  S S S S S  S S S  S S S S S  S S  S    S S S S S  S S S  S S S S S  S S  S
--------------------------------------|--------------------------------------|
--------------------------------------|--------------------------------------|
--------------------------------------|--------------------------------------|
--------------------------------------|--------------------------------------|
--2-2-2-2-5--0-2-7--2-2-2-2-8--2-9-11-|--2-2-2-2-5--0-2-7--2-2-2-2-8--2-9-11-|
--0-0-0-0-3p-0-0-5p-0-0-0-0-6p-0-7--9-|--0-0-0-0-3p-0-0-5p-0-0-0-0-6p-0-7--9-|


  S S S S S  S S S  S S S S S  S S  S
--------------------------------------|
--------------------------------------|
--------------------------------------|
--------------------------------------|
--2-2-2-2-5--0-2-7--2-2-2-2-8--2-9-11-|
--0-0-0-0-3p-0-0-5p-0-0-0-0-6p-0-7--9-|


  Verso
  S     S S S S  S S S  S S S S S  S S  S
------------------------------------------|
------------------------------------------|
------------------------------------------|
------------------------------------------|
--2-----2-2-2-5--0-2-7--2-2-2-2-8--2-9-11-|
--0-----0-0-0-3p-0-0-5p-0-0-0-0-6p-0-7--9-|


  S S S S S  S S S  S S S S S  S S  S    S S S S S  S S S  S S S S S  S S  S
--------------------------------------|--------------------------------------|
--------------------------------------|--------------------------------------|
--------------------------------------|--------------------------------------|
--------------------------------------|--------------------------------------|
--2-2-2-2-5--0-2-7--2-2-2-2-8--2-9-11-|--2-2-2-2-5--0-2-7--2-2-2-2-8--2-9-11-|
--0-0-0-0-3p-0-0-5p-0-0-0-0-6p-0-7--9-|--0-0-0-0-3p-0-0-5p-0-0-0-0-6p-0-7--9-|


  S S S S S  S S S  S S S S S  S S  S
--------------------------------------|
--------------------------------------|
--------------------------------------|
--------------------------------------|
--2-2-2-2-5--0-2-7--2-2-2-2-8--2-9-11-|
--0-0-0-0-3p-0-0-5p-0-0-0-0-6p-0-7--9-|


  PM PM PM PM    PM PM PM PM     PM PM PM PM    PM PM PM PM
   T  T  T  T  E  T  T  T  T   E  T  T  T  T  E  T  T  T  T  E
---------------------------------------------------------------|
---------------------------------------------------------------|
---------------------------------------------------------------|
--------------9--------------10--------------7--------------8--|
--------------7---------------8--------------5--------------6--|
--0--0--0--0-----0--0--0--0------0--0--0--0-----0--0--0--0-----|


  PM PM PM PM    PM PM PM PM     PM PM PM PM    PM PM PM PM
   T  T  T  T  E  T  T  T  T   E  T  T  T  T  E  T  T  T  T  E
---------------------------------------------------------------|
---------------------------------------------------------------|
---------------------------------------------------------------|
--------------9--------------10--------------7--------------8--|
--------------7---------------8--------------5--------------6--|
--0--0--0--0-----0--0--0--0------0--0--0--0-----0--0--0--0-----|


  PM PM PM PM    PM PM PM PM     PM PM PM PM    PM PM PM PM
   T  T  T  T  E  T  T  T  T   E  T  T  T  T  E  T  T  T  T  E
---------------------------------------------------------------|
---------------------------------------------------------------|
---------------------------------------------------------------|
--------------9--------------10--------------7--------------8--|
--------------7---------------8--------------5--------------6--|
--0--0--0--0-----0--0--0--0------0--0--0--0-----0--0--0--0-----|


  PM PM PM PM    PM PM PM PM     PM PM PM PM    PM PM PM PM
   T  T  T  T  E  T  T  T  T   E  T  T  T  T  E  T  T  T  T  E
---------------------------------------------------------------|
---------------------------------------------------------------|
---------------------------------------------------------------|
--------------9--------------10--------------7--------------8--|
--------------7---------------8--------------5--------------6--|
--0--0--0--0-----0--0--0--0------0--0--0--0-----0--0--0--0-----|


      Riff 1
  S S S      S S S S S S S S S S S S S    S S S S S S S S S S S S S S S S
---------------------------------------|----------------------------------|
---------------------------------------|----------------------------------|
---------------------------------------|----------------------------------|
---------------------------------------|----------------------------------|
--2-2-5------2-2-7-2-2-8-2-2-5-7-2-5-7-|--2-2-5-2-2-7-2-2-8-2-2-5-7-2-5-7-|
--0-0-3------0-0-5-0-0-6-0-0-3-5-0-3-5-|--0-0-3-0-0-5-0-0-6-0-0-3-5-0-3-5-|


  S S S S S S S S S S S S S S S S    S S S S S S S S S S S S S S S S
----------------------------------|----------------------------------|
----------------------------------|----------------------------------|
----------------------------------|----------------------------------|
----------------------------------|----------------------------------|
--2-2-5-2-2-7-2-2-8-2-2-5-7-2-5-7-|--2-2-5-2-2-7-2-2-8-2-2-5-7-2-5-7-|
--0-0-3-0-0-5-0-0-6-0-0-3-5-0-3-5-|--0-0-3-0-0-5-0-0-6-0-0-3-5-0-3-5-|


  Verso
  S     S S S S  S S S  S S S S S  S S  S
------------------------------------------|
------------------------------------------|
------------------------------------------|
------------------------------------------|
--2-----2-2-2-5--0-2-7--2-2-2-2-8--2-9-11-|
--0-----0-0-0-3p-0-0-5p-0-0-0-0-6p-0-7--9-|


  S S S S S  S S S  S S S S S  S S  S    S S S S S  S S S  S S S S S  S S  S
--------------------------------------|--------------------------------------|
--------------------------------------|--------------------------------------|
--------------------------------------|--------------------------------------|
--------------------------------------|--------------------------------------|
--2-2-2-2-5--0-2-7--2-2-2-2-8--2-9-11-|--2-2-2-2-5--0-2-7--2-2-2-2-8--2-9-11-|
--0-0-0-0-3p-0-0-5p-0-0-0-0-6p-0-7--9-|--0-0-0-0-3p-0-0-5p-0-0-0-0-6p-0-7--9-|


  S S S S S  S S S  S S S S S  S S  S
--------------------------------------|
--------------------------------------|
--------------------------------------|
--------------------------------------|
--2-2-2-2-5--0-2-7--2-2-2-2-8--2-9-11-|
--0-0-0-0-3p-0-0-5p-0-0-0-0-6p-0-7--9-|


  Verso
  S     S S S S  S S S  S S S S S  S S  S
------------------------------------------|
------------------------------------------|
------------------------------------------|
------------------------------------------|
--2-----2-2-2-5--0-2-7--2-2-2-2-8--2-9-11-|
--0-----0-0-0-3p-0-0-5p-0-0-0-0-6p-0-7--9-|


  S S S S S  S S S  S S S S S  S S  S    S S S S S  S S S  S S S S S  S S  S
--------------------------------------|--------------------------------------|
--------------------------------------|--------------------------------------|
--------------------------------------|--------------------------------------|
--------------------------------------|--------------------------------------|
--2-2-2-2-5--0-2-7--2-2-2-2-8--2-9-11-|--2-2-2-2-5--0-2-7--2-2-2-2-8--2-9-11-|
--0-0-0-0-3p-0-0-5p-0-0-0-0-6p-0-7--9-|--0-0-0-0-3p-0-0-5p-0-0-0-0-6p-0-7--9-|


  S S S S S  S S S  S S S S S  S S  S
--------------------------------------|
--------------------------------------|
--------------------------------------|
--------------------------------------|
--2-2-2-2-5--0-2-7--2-2-2-2-8--2-9-11-|
--0-0-0-0-3p-0-0-5p-0-0-0-0-6p-0-7--9-|


  PM PM PM PM    PM PM PM PM     PM PM PM PM    PM PM PM PM
   T  T  T  T  E  T  T  T  T   E  T  T  T  T  E  T  T  T  T  E
---------------------------------------------------------------|
---------------------------------------------------------------|
---------------------------------------------------------------|
--------------9--------------10--------------7--------------8--|
--------------7---------------8--------------5--------------6--|
--0--0--0--0-----0--0--0--0------0--0--0--0-----0--0--0--0-----|


  PM PM PM PM    PM PM PM PM     PM PM PM PM    PM PM PM PM
   T  T  T  T  E  T  T  T  T   E  T  T  T  T  E  T  T  T  T  E
---------------------------------------------------------------|
---------------------------------------------------------------|
---------------------------------------------------------------|
--------------9--------------10--------------7--------------8--|
--------------7---------------8--------------5--------------6--|
--0--0--0--0-----0--0--0--0------0--0--0--0-----0--0--0--0-----|


  PM PM PM PM    PM PM PM PM     PM PM PM PM    PM PM PM PM
   T  T  T  T  E  T  T  T  T   E  T  T  T  T  E  T  T  T  T  E
---------------------------------------------------------------|
---------------------------------------------------------------|
---------------------------------------------------------------|
--------------9--------------10--------------7--------------8--|
--------------7---------------8--------------5--------------6--|
--0--0--0--0-----0--0--0--0------0--0--0--0-----0--0--0--0-----|


  PM PM PM PM    PM PM PM PM     PM PM PM PM    PM PM PM PM
   T  T  T  T  E  T  T  T  T   E  T  T  T  T  E  T  T  T  T  E
---------------------------------------------------------------|
---------------------------------------------------------------|
---------------------------------------------------------------|
--------------9--------------10--------------7--------------8--|
--------------7---------------8--------------5--------------6--|
--0--0--0--0-----0--0--0--0------0--0--0--0-----0--0--0--0-----|


                         Intro
  H        H           S S     S S S S S S S S S S S S S S
--------------------|--------------------------------------|
--------------------|--------------------------------------|
--------------------|--------------------------------------|
--2--------5--------|--------------------------------------|
--2--------5--------|--------------------------------------|
--0--------3--------|--0-0-----3-0-0-5-0-0-6-0-0-6-5-3-6-5-|


   H        H           S T T S S T T S S T T S S T T S E  E
--------------------|----------------------------------------|
--------------------|----------------------------------------|
--------------------|----------------------------------------|
--2--------5--------|----------------------------------8--8--|
--2--------5--------|----------------------------------8--8--|
--0--------3--------|--0-0-0-0-0-0-0-0-0-0-0-0-0-0-0-0-6--6--|


                         Intro
  H        H           S S     S S S S S S S S S S S S S S
--------------------|--------------------------------------|
--------------------|--------------------------------------|
--------------------|--------------------------------------|
--2--------5--------|--------------------------------------|
--2--------5--------|--------------------------------------|
--0--------3--------|--0-0-----3-0-0-5-0-0-6-0-0-6-5-3-6-5-|


   H        H           S T T S S T T S S T T S S T T S E  E
--------------------|----------------------------------------|
--------------------|----------------------------------------|
--------------------|----------------------------------------|
--2--------5--------|----------------------------------8--8--|
--2--------5--------|----------------------------------8--8--|
--0--------3--------|--0-0-0-0-0-0-0-0-0-0-0-0-0-0-0-0-6--6--|


                                           |--3--|
  S S S S S S S S S S S S S S  S S    S  S S  S  S S S  S S S S  S S S E.
-----------------------------------|---------------------------------------|
-----------------------------------|---------------------------------------|
----------4-------4-------4--------|---------------------------------------|
--5-6-7-8---5-6-7---5-6-7---8p-7-5-|--7p-5---------5-----------------------|
-----------------------------------|-------7p-5h-7---7p-5---5--------------|
-----------------------------------|----------------------7---7p-5-3-5-3---|


                        |--6-|  |--6--|                                |---6--|
  T  T  T  T  T  T  T T S S  S  S  S  S  T   T   T   T   T   T   T  T  S  S   S
--5h-8p-5h-7h-8p-7p-5---5---------------17h-20p-17h-19h-20p-19p-17----17--------
----------------------8---8p-7p-5h-7h-8----------------------------20----20p-19p
--------------------------------------------------------------------------------
--------------------------------------------------------------------------------
--------------------------------------------------------------------------------
--------------------------------------------------------------------------------


   |--6--|  |--6--|  |--6--|  |--6--|  |--6-|  |--6-|
   S  S  S  S  S  S  S  S  S  S  S  S  S  S S  S  S S Q
--17-15-13-------------------------------------------------|
-----------17-15-13----------------------------------------|
--------------------14-12-10-------------------------------|
-----------------------------14-12-10----------------------|
--------------------------------------12-10-8--------------|
----------------------------------------------12-10-8-5----|


   |--6--|  |--6--|  |--6--|  |--6--|  |--6--|  |--6--|  |--6--|  |--6--|
   S  S  S  S  S  S  S  S  S  S  S  S  S  S  S  S  S  S  S  S  S  S  S  S
--17-15-------------15-12-------------------------------------------------|
--------17-15-------------15-13-------15-12-------------------------------|
--------------17-14-------------14-12-------14-12-------14-12-------------|
--------------------------------------------------14-12-------14-12-------|
--------------------------------------------------------------------15-12-|
--------------------------------------------------------------------------|


   |---6---|  |---6---|  |---6---|  |---6---|  |---6---|  |---6---|  |---6---|
   S   S   S  S   S   S  S   S   S  S   S   S  S   S   S  S   S   S  S   S   S
--------------------------------------------------------------------------------
--17p-15p-13-17p-15p-13-17p-15p-13-17p-15p-13-17p-15p-13-17p-15p-13-17p-15p-13-1
--------------------------------------------------------------------------------
--------------------------------------------------------------------------------
--------------------------------------------------------------------------------
--------------------------------------------------------------------------------


   T  T  T  T  T  T  T T  T  T  T T T  T T T  T T T T T T T T Q
--12-13-12-10------------------------------------------------------|
--------------13-12-10-9-10-12-10-9--------------------------------|
------------------------------------9-10-9-7-----------------------|
---------------------------------------------10-9-7-6-7-9-7-6-6----|
-------------------------------------------------------------------|
-------------------------------------------------------------------|


          T         T         T         T             T
   |---6--|  |---6--|  |---6--|  |---6--|  |---6---|  |---6---|  |-3-|
   S   S  S  S   S  S  S   S  S  S   S  S  S   S   S  S   S   S  E   Q
------------------------------------------17h-19h-20-21p-20p-19-17--------|
--------------------------------17h-19-20---------------------------22----|
------------14h-16-18-16h-18-19-------------------------------------------|
--14h-16-17---------------------------------------------------------------|
--------------------------------------------------------------------------|
--------------------------------------------------------------------------|


                        Intro
  W                   S S     S S S S S S S S S S S S S S    H        H
-------------------|--------------------------------------|--------------------|
--L----------------|--------------------------------------|--------------------|
-------------------|--------------------------------------|--------------------|
-------------------|--------------------------------------|--2--------5--------|
-------------------|--------------------------------------|--2--------5--------|
--L----------------|--0-0-----3-0-0-5-0-0-6-0-0-6-5-3-6-5-|--0--------3--------|


  S T T S S T T S S T T S S T T S E  E     H        H
----------------------------------------|--------------------|
----------------------------------------|--------------------|
----------------------------------------|--------------------|
----------------------------------8--8--|--2--------5--------|
----------------------------------8--8--|--2--------5--------|
--0-0-0-0-0-0-0-0-0-0-0-0-0-0-0-0-6--6--|--0--------3--------|


    Intro
  S S     S S S S S S S S S S S S S S    H        H
--------------------------------------|--------------------|
--------------------------------------|--------------------|
--------------------------------------|--------------------|
--------------------------------------|--2--------5--------|
--------------------------------------|--2--------5--------|
--0-0-----3-0-0-5-0-0-6-0-0-6-5-3-6-5-|--0--------3--------|


                                             Intro
  S T T S S T T S S T T S S T T S E  E     S S     S S S S S S S S S S S S S S
----------------------------------------|--------------------------------------|
----------------------------------------|--------------------------------------|
----------------------------------------|--------------------------------------|
----------------------------------8--8--|--------------------------------------|
----------------------------------8--8--|--------------------------------------|
--0-0-0-0-0-0-0-0-0-0-0-0-0-0-0-0-6--6--|--0-0-----3-0-0-5-0-0-6-0-0-3-5-0-3-5-|


  S S S S S S S S S S S S S S S S    S S S S S S S S S S S S S S S S
----------------------------------|----------------------------------|
----------------------------------|----------------------------------|
----------------------------------|----------------------------------|
----------------------------------|----------------------------------|
----------------------------------|----------------------------------|
--0-0-3-0-0-5-0-0-6-0-0-3-5-0-3-5-|--0-0-3-0-0-5-0-0-6-0-0-3-5-0-3-5-|


                                       Intro
  S S S S S S S S S S S S S S S S    S S     S S S S S S S S S S S S S S
----------------------------------|--------------------------------------|
----------------------------------|--------------------------------------|
----------------------------------|--------------------------------------|
----------------------------------|--------------------------------------|
----------------------------------|--------------------------------------|
--0-0-3-0-0-5-0-0-6-0-0-3-5-0-3-5-|--0-0-----3-0-0-5-0-0-6-0-0-3-5-0-3-5-|


    Intro                                  Intro
  S S     S S S S S S S S S S S S S S    S S     S S S S S S S S S S S S S S
--------------------------------------|--------------------------------------|
--------------------------------------|--------------------------------------|
--------------------------------------|--------------------------------------|
--------------------------------------|--------------------------------------|
--------------------------------------|--------------------------------------|
--0-0-----3-0-0-5-0-0-6-0-0-3-5-0-3-5-|--0-0-----3-0-0-5-0-0-6-0-0-3-5-0-3-5-|


    Intro
  S S     S S S S S S S S S S S S S S    H        H
--------------------------------------|--------------------|
--------------------------------------|--------------------|
--------------------------------------|--------------------|
--------------------------------------|--2--------5--------|
--------------------------------------|--2--------5--------|
--0-0-----3-0-0-5-0-0-6-0-0-3-5-0-3-5-|--0--------3--------|


    Intro
  S S     S S S S S S S S S S S S S S    H        H
--------------------------------------|--------------------|
--------------------------------------|--------------------|
--------------------------------------|--------------------|
--------------------------------------|--2--------5--------|
--------------------------------------|--2--------5--------|
--0-0-----3-0-0-5-0-0-6-0-0-6-5-3-6-5-|--0--------3--------|


  S T T S S T T S S T T S S T T S E  E     H        H
----------------------------------------|--------------------|
----------------------------------------|--------------------|
----------------------------------------|--------------------|
----------------------------------8--8--|--2--------5--------|
----------------------------------8--8--|--2--------5--------|
--0-0-0-0-0-0-0-0-0-0-0-0-0-0-0-0-6--6--|--0--------3--------|


    Intro
  S S     S S S S S S S S S S S S S S    H        H
--------------------------------------|--------------------|
--------------------------------------|--------------------|
--------------------------------------|--------------------|
--------------------------------------|--2--------5--------|
--------------------------------------|--2--------5--------|
--0-0-----3-0-0-5-0-0-6-0-0-6-5-3-6-5-|--0--------3--------|


  S T T S S T T S S T T S S T T S E  E     S S S S S S S S S S S S S S S S
----------------------------------------|----------------------------------|
----------------------------------------|----------------------------------|
----------------------------------------|----------------------------------|
----------------------------------8--8--|----------------------------------|
----------------------------------8--8--|----------------------------------|
--0-0-0-0-0-0-0-0-0-0-0-0-0-0-0-0-6--6--|--0-0-3-0-0-5-0-0-6-0-0-3-5-0-3-5-|


  S S S S S S S S S S S S S S S S    S S S S S S S S S S S S S S S S
----------------------------------|----------------------------------|
----------------------------------|----------------------------------|
----------------------------------|----------------------------------|
----------------------------------|----------------------------------|
----------------------------------|----------------------------------|
--0-0-3-0-0-5-0-0-6-0-0-3-5-0-3-5-|--0-0-3-0-0-5-0-0-6-0-0-3-5-0-3-5-|


  S S S S S S S S S S S S S S S S    W                   W
----------------------------------|-------------------|-------------------||
----------------------------------|-------------------|-------------------||
----------------------------------|-------------------|-------------------||
----------------------------------|--2----------------|--L----------------||
----------------------------------|--2----------------|--L----------------||
--0-0-3-0-0-5-0-0-6-0-0-3-5-0-3-5-|--0----------------|--L----------------||




Duration Legend
---------------
W - whole
H - half
Q - quarter
E|- 8th
S - 16th
T - 32nd
X - 64th
. - note dotted
|-n-|  - n-tuplets


Tablature Legend
----------------
L - tied note
x - dead note
G|- grace note
(n) - ghost note
> - accentuded note
NH - natural harmonic
AH - artificial harmonic
TH - tapped harmonic
SH - semi harmonic
PH - pitch harmonic
h - hammer on
p - pull off
B|- bend
br - bendRelease
pb - preBend
pbr - preBendRelease
brb - bendReleaseBend
\n/ - tremolo bar dip
\n - tremolo bar dive
-/n - tremolo bar Release up
/n\ - tremolo bar inverted dip
/n - tremolo bar return
-\n - tremolo bar Release down
S - shift slide
s - legato slide
/ -  slide into from below or out of upwards
\ -  slide into from above or out of downwards
~ - vibrato
W - wide vibrato
tr - trill
TP - tremolo picking
T - tapping
S - slap
P - pop
< - fade in
^ - brush up
v - brush down 
		  

See also:

tabs Ira! - Poço de Sensibilidade (Solo - Acustico Mtv) tabs Deep Purple - Gypsy Kiss tabs Ira! - Envelheço na Cidade (intro) tabs Deep Purple - Smoke on the Water (solo) tabs Ira! - Eu Quero Sempre Mais (Com Pitty, intro) tabs Ira! - Prisão das Ruas
e-chords

Other versions:

tabs Folkslave - Nação tabs Rodolfo Abrantes - Nação Santa
auto scroll beats size up size down change color hide chords drawings
tab show chords e-chords YouTube Clip e-chords hide all tabs e-chords go to top tab

share