Flogging Molly

home > Flogging Molly

The Worst Day Since Yesterday Tab

Flogging Molly

Difficulty: AdvancedAdvanced

tuner correct add songbook print version text version save to e-mail
chordsukulelecavacokeyboardtabbassdrumsharmonicsflute Guitar Pro
chords

The Worst Day Since Yesterday

  		 This song has a kind of weird rhythem, at first I kept forgetting it and had  
to listen to the CD. Its basically like 1, 1-2, 1-2-3-4, 1-2, 1-2-3-4 using  
up and down strokes...Don't let the chords ring out, listen to the CD...  
(1)(1 2)(1 2 3 4)  
 
Chords = Variations of G, A and D.  
Fig. 1 (Play Twice)  
e|-2--2-2--2-2-0-0--0-0--0-0-0-2--2-2--2-2-2-2h3p2-2--2-2--2-2-0-------------|  
B|-3--3-3--3-3-0-2--2-2--2-2-0-3--3-3--3-3-3-3-----3--3-3--3-3-0-------------|  
G|-2--2-2--2-2-0-2--2-2--2-2-0-2--2-2--2-2-2-2-----2--2-2--2-2-0-------------|  
D|-0--0-0--0-0-0-2--2-2--2-2-0-0--0-0--0-0-0-0-----0--0-0--0-0-0-------------|  
A|-0--0-0--0-0-0-0--0-0--0-0-0-0--0-0--0-0-0-0-----0--0-0--0-0-0-------------|  
E|---------------------------------------------------------------------------|  
 
Fig. 2 (Play once, then play Fig. 1 once)  
e|-2--2-2--2-2-0-0--0-0--0-0-0-2--2-2--2-2-0-3--3-3--3-3-0-3--3-3--3-3-0-----|  
B|-3--3-3--3-3-0-2--2-2--2-2-0-3--3-3--3-3-0-0--0-0--0-0-0-0--0-0--0-0-0-----|  
G|-2--2-2--2-2-0-2--2-2--2-2-0-2--2-2--2-2-0-0--0-0--0-0-0-0--0-0--0-0-0-----|  
D|-0--0-0--0-0-0-2--2-2--2-2-0-0--0-2--0-0-0-0--0-0--0-0-0-0--0-0--0-0-0-----|  
A|-0--0-0--0-0-0-0--0-0--0-0-0-0--0-0--0-0-0-2--2-2--2-2-0-2--2-2--2-2-0-----|  
E|-------------------------------------------3--3-3--3-3-0-3--3-3--3-3-0-----|  
 
Fig. 3 (Falling down, to you sweet ground...and...hell, says hello...)  
e|-3--3-3--3-3-0-3--3-3--3-3-0-2--2-2--2-2-0-2--2-2--2-2-0-3--3-3--3-3-3-3---|  
B|-0--0-0--0-0-0-0--0-0--0-0-0-3--3-3--3-3-0-3--3-3--3-3-0-0--0-0--0-0-0-0---|  
G|-0--0-0--0-0-0-0--0-0--0-0-0-2--2-2--2-2-0-2--2-2--2-2-0-0--0-0--0-0-0-0---|  
D|-0--0-0--0-0-0-0--0-0--0-0-0-0--0-0--0-0-0-0--0-0--0-0-0-0--0-0--0-0-0-0---|  
A|-2--2-2--2-2-0-2--2-2--2-2-0-0--0-0--0-0-0-0--0-0--0-0-0-2--2-2--2-2-0-2---|  
E|-3--3-3--3-3-0-3--3-3--3-3-0-----------------------------3--3-3--3-3-0-3---|  
 
e|-3-3--3-3-0-2--2-2--2-2-0-0--0-0--0-0-0------------------------------------|  
B|-0-0--0-0-0-3--3-3--3-3-0-2--2-2--2-2-0------------------------------------|  
G|-0-0--0-0-0-2--2-2--2-2-0-2--2-2--2-2-0------------------------------------|  
D|-0-0--0-0-0-0--0-0--0-0-0-2--2-2--2-2-0------------------------------------|  
A|-2-2--2-2-0-0--0-0--0-0-0-0--0-0--0-0-0------------------------------------|  
E|-3-3--3-3-0----------------------------------------------------------------|  
 
Fig. 4 (During the little electric geetar riffs)  
e|-0--0-0--0-0-0-0--0-0--0-0-0-3--3-3--3-3-0-2--2-2--2-2-0-------------------|  
B|-2--2-2--2-2-0-2--2-2--2-2-0-0--0-0--0-0-0-3--3-3--3-3-0-------------------|  
G|-2--2-2--2-2-0-2--2-2--2-2-0-0--0-0--0-0-0-2--2-2--2-2-0-------------------|  
D|-2--2-2--2-2-0-2--2-2--2-2-0-0--0-0--0-0-0-0--0-0--0-0-0-------------------|  
A|-0--0-0--0-0-0-0--0-0--0-0-0-2--2-2--2-2-0-0--0-0--0-0-0-------------------|  
E|-----------------------------3--3-3--3-3-0---------------------------------|  
 
You asked for a guitar tab and I bring you Flogging Molly!  
What else could you want!?  
 
Basically you just play that again and again and again and again...this is  
just the acoustic but its fun to play and mess around with... 
 

	  

Full key step upFull key step up
Half key step upHalf key step up
Half key step downHalf key step down
Full key step downFull key step down
Search Paypal
auto scroll beats size up size down change color hide chords drawings
tab show chords e-chords YouTube Clip e-chords hide all tabs e-chords go to top tab