Flesh Eaters

Cyrano de Berger's Back

Flesh Eaters

tabs

by  WULFY

save to print version add songbook text version e-mail correct tuner
chordsukulelecavacokeyboardtabbassdrumsharmonicaflute Guitar Pro
close

there isn't a video lesson for this song

chords

Cyrano de Berger's Back

	  		Instrument: 6 String Guitar 
 
Tabbed by: John "Billy Goat" Caldwell ([email protected]) 
 
Tuning: Select a Tuning... (E A D G B e) 
 
 
 
bridge 
 e|----------------|| 
 B|----------------|| 
 G|----------------|| 
 D|----------------|| 
 A|----6-6-/--7--4-| 
 E|----4-4-/--5--2-|| 
 
Chorus Intro 
palm mute 
 e|--------------------------------------------------|| 
 B|--------------------------------------------------|| 
 G|--------------------------------------------------|| 
 D|--------------------------------------------------|| 
 A|--------------------------------------------------|| 
 E|-0000-22-44-55555555--2222-55-66-777777777777777-- 
 
Chorus 
 
 e|-----------------|| 
 B|-----------------|| 
 G|-----------------|| 
 D|-----------------|| 
 A|-4-6----7-2------|| 
 E|-2-4----5-0------|| 
 
 
 
bridge-21 
Chorus Intro-2 
Chorus-1 
bridge-23 
Chorus intro-2 
Chorus-1 
bridge-4 
Chorus intro-2 
Chorus-1 
bridge-15 
 

		  

Full key step upFull key step up
Half key step upHalf key step up
Half key step downHalf key step down
Full key step downFull key step down
hide glossary

See also:

tabs Ramones - Blitzkrieg Bop tabs Goo Goo Dolls - Name tabs Green Day - Brain Stew tabs Goo Goo Dolls - Iris (Acoustic) tabs Green Day - Boulevard of brocken dreams tabs Green Day - Minority
e-chords

Other versions:

tabs Flesh Eaters - Cyrano de Berger's Back
auto scroll beats size up size down change color hide chords drawings
tab show chords e-chords YouTube Clip e-chords hide all tabs e-chords go to top tab

share