Flatt & Scruggs

Old Salty Dog Blues

Flatt & Scruggs

tabs Expert expert

save to print version add songbook text version e-mail correct tuner
chordsukulelecavacokeyboardtabbassdrumsharmonicaflute Guitar Pro
close

there isn't a video lesson for this song

chords

Old Salty Dog Blues

	  		This is a fairly easy banjo song for a beginner. 
 
h: hammer on   /: slide 
p: pull off 
b: bend  
 
------------------0-----0---0---0-----0---0-----0-----0---- 
----------------0-----0-------1-----1-----0---------------- 
----------0---2/3-----------------------------2-----2-----2 
--0---2---------------------------------------------------- 
--------------------0-----0-------0-----0---------0-----0-- 
 
-0-----------0---0-------0-----0-----0-----0------0-------- 
---1---0-----------2h3-2h3---3-----------0---0------------- 
-----------2-----------------------2/3---------3p2--0------ 
----------------------------------------------------------- 
---------------0-----------0-----0-----0----------------0-- 
 
---0-----0-----0-------0-------0-----0---0---0-----0---0--- 
-------------------0---------0-----0-------1-----1-----0--- 
-2/3-0-----0---------------2/3----------------------------- 
-------2--------------------------------------------------- 
---------------0-------0---------0-----0-------0-----0----- 
 
---0-----0-----0-----------0---0-------0-----0-----0-----0- 
-----------------1---0-----------2h3-2h3---3-----------0--- 
-2-----2-----2-----------2-----------------------2/3------- 
----------------------------------------------------------- 
-----0-----0-----------------0-----------0-----0-----0----- 
 
------0----------0-----0-----0-------0---12---12------12--- 
-0-----------------------------------------------12------12 
---3p2---0-----2/3-0-----0-------0------------------------- 
---------------------2------------------------------------- 
-------------0---------------0-------0--------------0------ 
 
---14------14------12-----------11------11------11----11--- 
------12------12--------10---13------13------13----12----10 
----------------------------------------------------------- 
----------------------------------------------------------- 
-0-------0-------0-----------------0-------0--------------- 
 
-----------------16------16-----------------0---------0---- 
------13/15---15------15------1010b11--1010b11---1010b11--- 
----------------------------------------------------------- 
----------------------------------------------------------- 
--0-----------------0-------0------------------0---------0- 
 
-----------9-------0---- 
-8-----1010b11-8-------- 
-----------------9---0-- 
------------------------ 
-----0------------------ 
 
-----------------0-----0----0---0-----0---0-----0-----0---- 
---------------0-----0--------1-----1-----0---------------- 
---------0---2/3------------------------------2-----2-----2 
-0---2----------------------------------------------------- 
-------------------0-----0-------0-----0---------0-----0--- 
 
0-----0-----0---0-------0-----0---------0-----0-----------0 
----0-------------2h3-2h3---3------------------------------ 
----------2-----------------------2h3-2h3---2h3---0-----2/3 
----------------------------------------------------------- 
--0-----0-----0-----------0-----0---------0-----0-----0---- 
 
-----0-----0-------0-------0-----0---0---0-----0---0-----0- 
---------------0---------0-----0-------1-----1-----0------- 
-0-----0---------------2/3-----------------------------2--- 
---2------------------------------------------------------- 
-----------0-------0---------0-----0-------0-----0--------- 
 
----0-----0-----0-----0---0-------0-----0---------0-----0-- 
--------------0-------------2h3-2h3---3-------------------- 
--2-----2-----------2-----------------------2h3-2h3---2h3-- 
----------------------------------------------------------- 
0-----0-----0-----0-----0-----------0-----0---------0-----0 
 
---------0-----0-------0-------0---12------12------14------ 
--------------------------------------12------12------12--- 
-0-----2/3-0-------0-------0------------------------------- 
-------------2--------------------------------------------- 
-----0-----------------0-------0---------0-------0-------0- 
 
14------12-----------11------11------11----11-------------- 
---12--------10---13------13------13----12----10------14/15 
----------------------------------------------------------- 
----------------------------------------------------------- 
------0-----------------0-------0------------------0------- 
 
-----------16------16------16-----------------------9------ 
---15---15------15------15------1010b11---1010b11---1111b12 
----------------------------------------------------------- 
----------------------------------------------------------- 
--------------0-------0-------0---------0---------0-------- 
 
-----9-----------9-------- 
-----1111b12-----1111b12-- 
-------------------------- 
-------------------------- 
-0-----------0------------ 
 
-----------------0-----0---0---0-----0---0-----0-----0----- 
---------------0-----0-------1-----1-----0----------------- 
---------0---2/3-----------------------------2-----2-----2- 
-0---2----------------------------------------------------- 
-------------------0-----0-------0-----0---------0-----0--- 
 
-0-----------0---0-------0-----0-----0-----0------0-------- 
---1---0-----------2h3-2h3---3-----------0---0------------- 
-----------2-----------------------2/3---------3p2--0------ 
----------------------------------------------------------- 
---------------0-----------0-----0-----0----------------0-- 
 
---0-----0-----0-------0-------0-----0---0---0-----0---0--- 
-------------------0---------0-----0-------1-----1-----0--- 
-2/3-0-----0---------------2/3----------------------------- 
-------2--------------------------------------------------- 
---------------0-------0---------0-----0-------0-----0----- 
 
---0-----0-----0-----------0---0-------0-----0-----0-----0- 
-----------------1---0-----------2h3-2h3---3-----------0--- 
-2-----2-----2-----------2-----------------------2/3------- 
----------------------------------------------------------- 
-----0-----0-----------------0-----------0-----0-----0----- 
 
------0----------0-----0-----0-------0---12---12------12--- 
-0-----------------------------------------------12------12 
---3p2---0-----2/3-0-----0-------0------------------------- 
---------------------2------------------------------------- 
-------------0---------------0-------0--------------0------ 
 
---14------14------12-----------11------11------11----11--- 
------12------12--------10---13------13------13----12----10 
----------------------------------------------------------- 
----------------------------------------------------------- 
-0-------0-------0-----------------0-------0--------------- 
 
-----------------16------16-----------------0---------0---- 
------13/15---15------15------1010b11--1010b11---1010b11--- 
----------------------------------------------------------- 
----------------------------------------------------------- 
--0-----------------0-------0------------------0---------0- 
  
-----------9-------0-------0--------------- 
-8-----1010b11-8--------------------------- 
-----------------9---0-----0--------------- 
------------------------------------------- 
-----0---------------------0--------------- 
 
 

		  

See also:

tabs Caedmon's Call - April Showers tabs The Raveonettes - Hark! The Herald Angels Sing tabs Vineyard - Vim Para Adorar-te tabs The Raveonettes - joy to the world tabs The Raveonettes - the first noel tabs Hillsong - Healer
e-chords

Other versions:

tabs Flatt & Scruggs - Old Salty Dog Blues
auto scroll beats size up size down change color hide chords drawings
tab show chords e-chords YouTube Clip e-chords hide all tabs e-chords go to top tab

share