Flatt & Scruggs

Beverely Hilbillies

Flatt & Scruggs

tabs

save to print version add songbook text version e-mail correct tuner
chordsukulelecavacokeyboardtabbassdrumsharmonicaflute Guitar Pro
close

there isn't a video lesson for this song

chords

Beverely Hilbillies

	  		E---------------------------I----------------------- 
B---------------------------I----------------------- 
G---------------------------I----------------------- 
D---------------------------I----------------------- 
A------0000---2/4-444--22---I-------22-020---------- 
E--00---------------------0-I--0-44----------20----- 
 
 
E--------------------------------------------------- 
B--------------------------------------------------- 
G--------------------------------------------------- 
D------------000-2-2/4-4-2-222-22------------------- 
A-00-2/4-44-----------------------------0----------- 
E---------------------------------0-2-4------------- 
 

		  

See also:

tabs Caedmon's Call - April Showers tabs The Raveonettes - Hark! The Herald Angels Sing tabs Vineyard - Vim Para Adorar-te tabs The Raveonettes - joy to the world tabs The Raveonettes - the first noel tabs Hillsong - Healer
e-chords

Other versions:

tabs Flatt & Scruggs - Beverely Hilbillies
auto scroll beats size up size down change color hide chords drawings
tab show chords e-chords YouTube Clip e-chords hide all tabs e-chords go to top tab

share