Five Finger Death Punch

Watch You Bleed

Five Finger Death Punch

tabs

by  ANDRSOUZA

save to print version add songbook text version e-mail correct tuner
chordsukulelecavacokeyboardtabbassdrumsharmonicaflute Guitar Pro
close

there isn't a video lesson for this song

chords

Watch You Bleed

	  		 


Guitar 1 

                                                          PM PM PM PM PM PM PM   
                                                     Q    E  E  S  S  E  E  E    
D||-------|-------|-------|-------|-------|-------|----------------------------| 
A||-------|-------|-------|-------|-------|-------|----------------------------| 
F||-------|-------|-------|-------|-------|-------|--5----5--5--5--5--5--5--5--| 
C||-------|-------|-------|-------|-------|-------|--5----5--5--5--5--5--5--5--| 
G||-------|-------|-------|-------|-------|-------|--3----3--3--3--3--3--3--3--| 
C||-------|-------|-------|-------|-------|-------|----------------------------| 


  PM PM PM PM                 PM PM    PM    PM    PM             
  S  S  E  E  Q    Q    E     S  S  E  S  E  S  E  S  S   Q       
---------------------------|------------------------------------| 
---------------------------|------------------------------------| 
--5--5--5--5--2------------|------------------------------------| 
--5--5--5--5--2----0----0--|----------------------------/12\----| 
--3--3--3--3--0----0----0--|----------------------------/12\----| 
-------------------0----0--|--2--2--2--2--1--2--2--2--1-/12\----| 


  PM PM    PM    PM    PM      PM PM    PM PM    PM      PM PM PM PM        
  S  S  E  S  E  S  E  S  E  S S  S     S  S  E  S  E  S S  S  S  S  Q      
-------------------------------------|------------------------------------| 
-------------------------------------|------------------------------------| 
-------------------------------------|------------------------------------| 
-------------------------------------|-------------------------------3----| 
-------------------------------------|-------------------------------3----| 
--2--2--2--2--1--2--2--2--1--L-2--1--|--1--2--2--2--1--L-2--1--2--3--3----| 


  PM PM    PM    PM    PM      PM PM    PM PM    PM      PM PM PM PM        
  S  S  E  S  E  S  E  S  E  S S  S     S  S  E  S  E  S S  S  S  S  Q      
-------------------------------------|------------------------------------| 
-------------------------------------|------------------------------------| 
-------------------------------------|------------------------------------| 
-------------------------------------|-------------------------------5----| 
-------------------------------------|-------------------------------5----| 
--2--2--2--2--1--2--2--2--1--L-2--1--|--1--2--2--2--1--L-2--1--2--3--5----| 


  PM PM    PM    PM    PM      PM PM    PM PM    PM      PM PM PM PM        
  S  S  E  S  E  S  E  S  E  S S  S     S  S  E  S  E  S S  S  S  S  Q      
-------------------------------------|------------------------------------| 
-------------------------------------|------------------------------------| 
-------------------------------------|------------------------------------| 
-------------------------------------|-------------------------------3----| 
-------------------------------------|-------------------------------3----| 
--2--2--2--2--1--2--2--2--1--L-2--1--|--1--2--2--2--1--L-2--1--2--3--3----| 


  PM PM    PM    PM    PM      PM PM    PM PM    PM      PM PM PM PM        
  S  S  E  S  E  S  E  S  E  S S  S     S  S  E  S  E  S S  S  S  S  Q      
-------------------------------------|------------------------------------| 
-------------------------------------|------------------------------------| 
-------------------------------------|------------------------------------| 
-------------------------------------|-------------------------------5----| 
-------------------------------------|-------------------------------5----| 
--2--2--2--2--1--2--2--2--1--L-2--1--|--1--2--2--2--1--L-2--1--2--3--5----| 


  PM PM    PM    PM    PM      PM PM    PM PM    PM      PM PM PM PM        
  S  S  E  S  E  S  E  S  E  S S  S     S  S  E  S  E  S S  S  S  S  Q      
-------------------------------------|------------------------------------| 
-------------------------------------|------------------------------------| 
-------------------------------------|------------------------------------| 
-------------------------------------|-------------------------------3----| 
-------------------------------------|-------------------------------3----| 
--2--2--2--2--1--2--2--2--1--L-2--1--|--1--2--2--2--1--L-2--1--2--3--3----| 


  PM PM    PM    PM    PM      PM PM    PM PM    PM      PM PM PM PM        
  S  S  E  S  E  S  E  S  E  S S  S     S  S  E  S  E  S S  S  S  S  Q      
-------------------------------------|------------------------------------| 
-------------------------------------|------------------------------------| 
-------------------------------------|------------------------------------| 
-------------------------------------|-------------------------------5----| 
-------------------------------------|-------------------------------5----| 
--2--2--2--2--1--2--2--2--1--L-2--1--|--1--2--2--2--1--L-2--1--2--3--5----| 


  PM PM    PM    PM    PM      PM PM    PM PM    PM      PM PM PM PM        
  S  S  E  S  E  S  E  S  E  S S  S     S  S  E  S  E  S S  S  S  S  Q      
-------------------------------------|------------------------------------| 
-------------------------------------|------------------------------------| 
-------------------------------------|------------------------------------| 
-------------------------------------|-------------------------------3----| 
-------------------------------------|-------------------------------3----| 
--2--2--2--2--1--2--2--2--1--L-2--1--|--1--2--2--2--1--L-2--1--2--3--3----| 


  PM PM    PM    PM    PM      PM PM    PM PM    PM      PM PM PM PM        
  S  S  E  S  E  S  E  S  E  S S  S     S  S  E  S  E  S S  S  S  S  Q      
-------------------------------------|------------------------------------| 
-------------------------------------|------------------------------------| 
-------------------------------------|------------------------------------| 
-------------------------------------|-------------------------------5----| 
-------------------------------------|-------------------------------5----| 
--2--2--2--2--1--2--2--2--1--L-2--1--|--1--2--2--2--1--L-2--1--2--3--5----| 


  PM PM    PM PM                  PM PM    PM PM                 
  S  S  E  S  S  Q    E  E  E     S  S  E  S  S  Q    E  E  E    
-------------------------------|-------------------------------| 
-------------------------------|-------------------------------| 
-------------------------------|-------------------------------| 
--------5--------4----2--4--5--|--------5--------4----2--4--5--| 
--3--3-----3--3----------------|--3--3-----3--3----------------| 
-------------------------------|-------------------------------| 


                                PM PM PM               
  E  E  E  E  E  E  E  E     E  E  E  E  E  E  E  E    
--------------------------|--------------------------| 
--------------------------|--------------------------| 
--7--7--7--7--7--7--7--7--|--L--7--7--7--7--7--7--7--| 
--7--7--7--7--7--7--7--7--|--L--7--7--7--7--7--7--7--| 
--5--5--5--5--5--5--5--5--|--L--5--5--5--5--5--5--5--| 
--------------------------|--------------------------| 


       PM PM PM PM                         PM PM PM PM PM PM PM      
  Q    S  S  S  S  E  E  E  E     E  E  E  S  E  S  S  S  S  S  E    
-------------------------------|-----------------------------------| 
-------------------------------|-----------------------------------| 
-------------------------------|-----------------------------------| 
--2----2--2--2--2-----0-----0--|--L--2--2--2--2--2--2--2--1--0--0--| 
--2----2--2--2--2-----0-----0--|--L--2--2--2--2--2--2--2--1--0--0--| 
--2----2--2--2--2-----0-----0--|--L--2--2--2--2--2--2--2--1--0--0--| 


           PM PM       PM PM                     PM PM         
  E  E  E  S  S  E  E  S  S  E     E  E  E  Q    E  S  E   S   
--------------------------------|----------------------------| 
--------------------------------|----------------------------| 
-----------------------------5--|--L--5--5-------------------| 
--L--2--2--2--2-----0--0--0--5--|--L--5--5--5----------------| 
--L--2--2--2--2-----0--0--0--3--|--L--3--3--5----------------| 
--L--2--2--2--2-----0--0--0-----|-----------5----0--0--5b--L-| 


       PM PM PM PM                         PM PM PM PM PM PM PM      
  Q    S  S  S  S  E  E  E  E     E  E  E  S  E  S  S  S  S  S  E    
-------------------------------|-----------------------------------| 
-------------------------------|-----------------------------------| 
-------------------------------|-----------------------------------| 
--2----2--2--2--2-----0-----0--|--L--2--2--2--2--2--2--2--1--0--0--| 
--2----2--2--2--2-----0-----0--|--L--2--2--2--2--2--2--2--1--0--0--| 
--2----2--2--2--2-----0-----0--|--L--2--2--2--2--2--2--2--1--0--0--| 


           PM PM       PM PM                     PM PM         
  E  E  E  S  S  E  E  S  S  E     E  E  E  Q    E  S  E   S   
--------------------------------|----------------------------| 
--------------------------------|----------------------------| 
-----------------------------5--|--L--5--5-------------------| 
--L--2--2--2--2-----0--0--0--5--|--L--5--5--5----------------| 
--L--2--2--2--2-----0--0--0--3--|--L--3--3--5----------------| 
--L--2--2--2--2-----0--0--0-----|-----------5----0--0--5b--L-| 


   T T  T T  T T  T T  T T  T T  T T  T T  T T  T T  T T  T T  T T  T T  T T  T  
-------------------------------------------------------------------------------- 
-------------------------------------------------------------------------------- 
-------------------------------------------------------------------------------- 
--12---14---14---14---14---14---12---14---14---14---14---14---12---14---14---14- 
-------------------------------------------------------------------------------- 
-------------------------------------------------------------------------------- 


   T T  T T  T T  T T  T T  T T  T T  T T  T T  T T  T T  T T  T T  T T  T T  T  
-------------------------------------------------------------------------------- 
-------------------------------------------------------------------------------- 
-------12---14---14---14---14--------12---14---14---14---14---14---14---14---14- 
--12----------------------------12---------------------------------------------- 
-------------------------------------------------------------------------------- 
-------------------------------------------------------------------------------- 


  PM PM    PM    PM    PM      PM PM    PM PM    PM      PM PM PM PM        
  S  S  E  S  E  S  E  S  E  S S  S     S  S  E  S  E  S S  S  S  S  Q      
-------------------------------------|------------------------------------| 
-------------------------------------|------------------------------------| 
-------------------------------------|------------------------------------| 
-------------------------------------|-------------------------------3----| 
-------------------------------------|-------------------------------3----| 
--2--2--2--2--1--2--2--2--1--L-2--1--|--1--2--2--2--1--L-2--1--2--3--3----| 


  PM PM    PM    PM    PM      PM PM    PM PM    PM      PM PM PM PM        
  S  S  E  S  E  S  E  S  E  S S  S     S  S  E  S  E  S S  S  S  S  Q      
-------------------------------------|------------------------------------| 
-------------------------------------|------------------------------------| 
-------------------------------------|------------------------------------| 
-------------------------------------|-------------------------------5----| 
-------------------------------------|-------------------------------5----| 
--2--2--2--2--1--2--2--2--1--L-2--1--|--1--2--2--2--1--L-2--1--2--3--5----| 


  PM PM    PM    PM    PM      PM PM    PM PM    PM      PM PM PM PM        
  S  S  E  S  E  S  E  S  E  S S  S     S  S  E  S  E  S S  S  S  S  Q      
-------------------------------------|------------------------------------| 
-------------------------------------|------------------------------------| 
-------------------------------------|------------------------------------| 
-------------------------------------|-------------------------------3----| 
-------------------------------------|-------------------------------3----| 
--2--2--2--2--1--2--2--2--1--L-2--1--|--1--2--2--2--1--L-2--1--2--3--3----| 


  PM PM    PM    PM    PM      PM PM    PM PM    PM      PM PM PM PM        
  S  S  E  S  E  S  E  S  E  S S  S     S  S  E  S  E  S S  S  S  S  Q      
-------------------------------------|------------------------------------| 
-------------------------------------|------------------------------------| 
-------------------------------------|------------------------------------| 
-------------------------------------|-------------------------------5----| 
-------------------------------------|-------------------------------5----| 
--2--2--2--2--1--2--2--2--1--L-2--1--|--1--2--2--2--1--L-2--1--2--3--5----| 


  PM PM    PM PM                  PM PM    PM PM                 
  S  S  E  S  S  Q    E  E  E     S  S  E  S  S  Q    E  E  E    
-------------------------------|-------------------------------| 
-------------------------------|-------------------------------| 
-------------------------------|-------------------------------| 
--------5--------4----2--4--5--|--------5--------4----2--4--5--| 
--3--3-----3--3----------------|--3--3-----3--3----------------| 
-------------------------------|-------------------------------| 


                                PM PM PM               
  E  E  E  E  E  E  E  E     E  E  E  E  E  E  E  E    
--------------------------|--------------------------| 
--------------------------|--------------------------| 
--7--7--7--7--7--7--7--7--|--L--7--7--7--7--7--7--7--| 
--7--7--7--7--7--7--7--7--|--L--7--7--7--7--7--7--7--| 
--5--5--5--5--5--5--5--5--|--L--5--5--5--5--5--5--5--| 
--------------------------|--------------------------| 


       PM PM PM PM                         PM PM PM PM PM PM PM      
  Q    S  S  S  S  E  E  E  E     E  E  E  S  E  S  S  S  S  S  E    
-------------------------------|-----------------------------------| 
-------------------------------|-----------------------------------| 
-------------------------------|-----------------------------------| 
--2----2--2--2--2-----0-----0--|--L--2--2--2--2--2--2--2--1--0--0--| 
--2----2--2--2--2-----0-----0--|--L--2--2--2--2--2--2--2--1--0--0--| 
--2----2--2--2--2-----0-----0--|--L--2--2--2--2--2--2--2--1--0--0--| 


           PM PM       PM PM                     PM PM         
  E  E  E  S  S  E  E  S  S  E     E  E  E  Q    E  S  E   S   
--------------------------------|----------------------------| 
--------------------------------|----------------------------| 
-----------------------------5--|--L--5--5-------------------| 
--L--2--2--2--2-----0--0--0--5--|--L--5--5--5----------------| 
--L--2--2--2--2-----0--0--0--3--|--L--3--3--5----------------| 
--L--2--2--2--2-----0--0--0-----|-----------5----0--0--5b--L-| 


       PM PM PM PM                         PM PM PM PM PM PM PM      
  Q    S  S  S  S  E  E  E  E     E  E  E  S  E  S  S  S  S  S  E    
-------------------------------|-----------------------------------| 
-------------------------------|-----------------------------------| 
-------------------------------|-----------------------------------| 
--2----2--2--2--2-----0-----0--|--L--2--2--2--2--2--2--2--1--0--0--| 
--2----2--2--2--2-----0-----0--|--L--2--2--2--2--2--2--2--1--0--0--| 
--2----2--2--2--2-----0-----0--|--L--2--2--2--2--2--2--2--1--0--0--| 


           PM PM       PM PM                     PM PM         
  E  E  E  S  S  E  E  S  S  E     E  E  E  Q    E  S  E   S   
--------------------------------|----------------------------| 
--------------------------------|----------------------------| 
-----------------------------5--|--L--5--5-------------------| 
--L--2--2--2--2-----0--0--0--5--|--L--5--5--5----------------| 
--L--2--2--2--2-----0--0--0--3--|--L--3--3--5----------------| 
--L--2--2--2--2-----0--0--0-----|-----------5----0--0--5b--L-| 


  E  E  E  E  E  Q     E     E  E  E  E  E  E  E  E    
--------------------------|--------------------------| 
--------------------------|--------------------------| 
--------------------------|--------------------------| 
--------------------------|--------------------------| 
--------------------------|--------------------------| 
--7--7--7--7--7--9----10--|--5--5--5--3--3--3--3--3--| 


  PM PM PM PM PM PM PM PM PM PM PM PM         
  S  S  S  S  S  S  S  S  S  S  S  S  Q       
--------------------------------------------| 
--------------------------------------------| 
--------------------------------------------| 
--------------------------------------7\----| 
--------------------------------------7\----| 
--2--2--2--2--0--0--3--3--3--3--2--2--7\----| 


  PM PM PM PM PM PM PM PM PM PM PM PM                                    
  S  S  S  S  S  S  S  S  S  S  S  S  Q        E  E  E  E  E  Q     E    
--------------------------------------------|--------------------------| 
--------------------------------------------|--------------------------| 
--------------------------------------------|--------------------------| 
--------------------------------------7\----|--------------------------| 
--------------------------------------7\----|--------------------------| 
--2--2--2--2--0--0--3--3--3--3--2--2--7\----|--7--7--7--7--7--9----10--| 


                             PM PM PM PM PM PM PM PM PM PM PM PM         
  E  E  E  E  E  E  E  E     S  S  S  S  S  S  S  S  S  S  S  S  Q       
--------------------------|--------------------------------------------| 
--------------------------|--------------------------------------------| 
--------------------------|--------------------------------------------| 
--------------------------|--------------------------------------7\----| 
--------------------------|--------------------------------------7\----| 
--5--5--5--3--3--3--3--3--|--2--2--2--2--0--0--3--3--3--3--2--2--7\----| 


  PM PM PM PM PM PM PM PM PM PM PM PM                                  
  S  S  S  S  S  S  S  S  S  S  S  S  Q        E  E  E  Q    Q    E    
--------------------------------------------|-----------3---------L--| 
--------------------------------------------|----------------3----L--| 
--------------------------------------------|--------5------------L--| 
--------------------------------------7\----|-----5---------------L--| 
--------------------------------------7\----|--3------------------L--| 
--2--2--2--2--0--0--3--3--3--3--2--2--7\----|------------------------| 


  E  E  E  E  H           E  Q    Q    Q    E     E  Q    Q    Q    E    
-----------------------|-----------------------|-----------------------| 
-----------0--L--------|-----------------------|-----------------------| 
--------2-----L--------|-----------------------|-----------------------| 
-----2--------L--------|-----------------------|-----------------------| 
--0-----------L--------|-----------------------|-----------------------| 
-----------------------|--2--0----3----0----2--|--2--0----3----0----2--| 


  E  E  E  Q    Q    E     E  E  E  E  H           E  Q    Q    Q    E    
-----------3---------L--|-----------------------|-----------------------| 
----------------3----L--|-----------0--L--------|-----------------------| 
--------5------------L--|--------2-----L--------|-----------------------| 
-----5---------------L--|-----2--------L--------|-----------------------| 
--3------------------L--|--0-----------L--------|-----------------------| 
------------------------|-----------------------|--2--0----3----0----2--| 


  E  Q    Q    Q    E     E  E  E  Q    Q    E     E  E  E  E  H          
-----------------------|-----------3---------L--|-----------------------| 
-----------------------|----------------3----L--|-----------0--L--------| 
-----------------------|--------5------------L--|--------2-----L--------| 
-----------------------|-----5---------------L--|-----2--------L--------| 
-----------------------|--3------------------L--|--0-----------L--------| 
--2--0----3----0----2--|------------------------|-----------------------| 


  E  Q    Q    Q    E     E  Q    Q    Q    E     E  E  E  Q    Q    E    
-----------------------|-----------------------|-----------3---------L--| 
-----------------------|-----------------------|----------------3----L--| 
-----------------------|-----------------------|--------5------------L--| 
-----------------------|-----------------------|-----5---------------L--| 
-----------------------|-----------------------|--3------------------L--| 
--2--0----3----0----2--|--2--0----3----0----2--|------------------------| 


  E  E  E  E  H           E  Q    Q    Q    E     E  Q    Q    Q    E    
-----------------------|-----------------------|-----------------------| 
-----------0--L--------|-----------------------|-----------------------| 
--------2-----L--------|-----------------------|-----------------------| 
-----2--------L--------|-----------------------|-----------------------| 
--0-----------L--------|-----------------------|-----------------------| 
-----------------------|--2--0----3----0----2--|--2--0----3----0----2--| 


                                                          W          
  E  Q    Q    Q    E     E  Q    H        E     H        H          
-----------------------|----------------------|--------------------| 
-----------------------|----------------------|--------------------| 
-----------------------|----------------------|--------------------| 
-----------------------|----------------------|--------------------| 
-----------------------|----------------------|--------------------| 
--2--0----3----0----2--|--2--0----3--------L--|--L--------L--------| 


  W                                                                    
  H        H                                                           
---------------------|-------|-------|-------|-------|-------|-------| 
---------------------|-------|-------|-------|-------|-------|-------| 
---------------------|-------|-------|-------|-------|-------|-------| 
---------------------|-------|-------|-------|-------|-------|-------| 
---------------------|-------|-------|-------|-------|-------|-------| 
--L--------Lb--------|-------|-------|-------|-------|-------|-------| 


       PM PM PM PM PM PM PM    PM PM PM PM                
  Q    E  E  S  S  E  E  E     S  S  E  E  Q    Q    E    
----------------------------|---------------------------| 
----------------------------|---------------------------| 
--5----5--5--5--5--5--5--5--|--5--5--5--5--2------------| 
--5----5--5--5--5--5--5--5--|--5--5--5--5--2----0----0--| 
--3----3--3--3--3--3--3--3--|--3--3--3--3--0----0----0--| 
----------------------------|-------------------0----0--| 


  PM PM    PM    PM    PM      PM PM    PM PM    PM                        
  S  S  E  S  E  S  E  S  E  S S  S     S  S  E  S  E  S S S S S S S S S   
-------------------------------------|-----------------------------------| 
-------------------------------------|-----------------------------------| 
-------------------------------------|-----------------------------------| 
-------------------------------------|-----------------------------------| 
-------------------------------------|-----------------------------------| 
--2--2--2--2--1--2--2--2--1--L-2--1--|--1--2--2--2--1--L-2---2---2---2---| 


       PM PM PM PM                         PM PM PM PM PM PM PM      
  Q    S  S  S  S  E  E  E  E     E  E  E  S  E  S  S  S  S  S  E    
-------------------------------|-----------------------------------| 
-------------------------------|-----------------------------------| 
-------------------------------|-----------------------------------| 
--2----2--2--2--2-----0-----0--|--L--2--2--2--2--2--2--2--1--0--0--| 
--2----2--2--2--2-----0-----0--|--L--2--2--2--2--2--2--2--1--0--0--| 
--2----2--2--2--2-----0-----0--|--L--2--2--2--2--2--2--2--1--0--0--| 


           PM PM       PM PM                     PM PM         
  E  E  E  S  S  E  E  S  S  E     E  E  E  Q    E  S  E   S   
--------------------------------|----------------------------| 
--------------------------------|----------------------------| 
-----------------------------5--|--L--5--5-------------------| 
--L--2--2--2--2-----0--0--0--5--|--L--5--5--5----------------| 
--L--2--2--2--2-----0--0--0--3--|--L--3--3--5----------------| 
--L--2--2--2--2-----0--0--0-----|-----------5----0--0--5b--L-| 


       PM PM PM PM                         PM PM PM PM PM PM PM      
  Q    S  S  S  S  E  E  E  E     E  E  E  S  E  S  S  S  S  S  E    
-------------------------------|-----------------------------------| 
-------------------------------|-----------------------------------| 
-------------------------------|-----------------------------------| 
--2----2--2--2--2-----0-----0--|--L--2--2--2--2--2--2--2--1--0--0--| 
--2----2--2--2--2-----0-----0--|--L--2--2--2--2--2--2--2--1--0--0--| 
--2----2--2--2--2-----0-----0--|--L--2--2--2--2--2--2--2--1--0--0--| 


           PM PM       PM PM                     PM PM         
  E  E  E  S  S  E  E  S  S  E     E  E  E  Q    E  S  E   S   
--------------------------------|----------------------------| 
--------------------------------|----------------------------| 
-----------------------------5--|--L--5--5-------------------| 
--L--2--2--2--2-----0--0--0--5--|--L--5--5--5----------------| 
--L--2--2--2--2-----0--0--0--3--|--L--3--3--5----------------| 
--L--2--2--2--2-----0--0--0-----|-----------5----0--0--5b--L-| 


       PM PM PM PM                         PM PM PM PM PM PM PM      
  Q    S  S  S  S  E  E  E  E     E  E  E  S  E  S  S  S  S  S  E    
-------------------------------|-----------------------------------| 
-------------------------------|-----------------------------------| 
-------------------------------|-----------------------------------| 
--2----2--2--2--2-----0-----0--|--L--2--2--2--2--2--2--2--1--0--0--| 
--2----2--2--2--2-----0-----0--|--L--2--2--2--2--2--2--2--1--0--0--| 
--2----2--2--2--2-----0-----0--|--L--2--2--2--2--2--2--2--1--0--0--| 


           PM PM       PM PM                     PM PM         
  E  E  E  S  S  E  E  S  S  E     E  E  E  Q    E  S  E   S   
--------------------------------|----------------------------| 
--------------------------------|----------------------------| 
-----------------------------5--|--L--5--5-------------------| 
--L--2--2--2--2-----0--0--0--5--|--L--5--5--5----------------| 
--L--2--2--2--2-----0--0--0--3--|--L--3--3--5----------------| 
--L--2--2--2--2-----0--0--0-----|-----------5----0--0--5b--L-| 


       PM PM PM PM                         PM PM PM PM PM PM PM      
  Q    S  S  S  S  E  E  E  E     E  E  E  S  E  S  S  S  S  S  E    
-------------------------------|-----------------------------------| 
-------------------------------|-----------------------------------| 
-------------------------------|-----------------------------------| 
--2----2--2--2--2-----0-----0--|--L--2--2--2--2--2--2--2--1--0--0--| 
--2----2--2--2--2-----0-----0--|--L--2--2--2--2--2--2--2--1--0--0--| 
--2----2--2--2--2-----0-----0--|--L--2--2--2--2--2--2--2--1--0--0--| 


           PM PM       PM PM                     PM PM         
  E  E  E  S  S  E  E  S  S  E     E  E  E  Q    E  S  E   S   
--------------------------------|----------------------------| 
--------------------------------|----------------------------| 
-----------------------------5--|--L--5--5-------------------| 
--L--2--2--2--2-----0--0--0--5--|--L--5--5--5----------------| 
--L--2--2--2--2-----0--0--0--3--|--L--3--3--5----------------| 
--L--2--2--2--2-----0--0--0-----|-----------5----0--0--5b--L-| 


  H        E  E  E  E     W                   H        E  E  E  E    
--------------3--L--3--|--L----------------|--------------3--L--3--| 
-----------5--L--5--L--|--L----------------|-----------5--L--5--L--| 
-----------------------|-------------------|-----------------------| 
-----------------------|-------------------|-----------------------| 
-----------------------|-------------------|-----------------------| 
-----------------------|-------------------|-----------------------| 


  W                   H        E  E  E  E     W                  
--L----------------|--------------3--L--3--|--L----------------| 
--L----------------|-----------5--L--5--L--|--L----------------| 
-------------------|-----------------------|-------------------| 
-------------------|-----------------------|-------------------| 
-------------------|-----------------------|-------------------| 
-------------------|-----------------------|-------------------| 


  H        E  E  E  E     W                                       
--------------3--L--3--|--L----------------|-------------------|| 
-----------5--L--5--L--|--L----------------|-------------------|| 
-----------------------|-------------------|-------------------|| 
-----------------------|-------------------|-------------------|| 
-----------------------|-------------------|-------------------|| 
-----------------------|-------------------|-------------------|| 


Guitar 2 


                                                          PM PM PM PM PM PM PM   
                                                     Q    E  E  S  S  E  E  E    
D||-------|-------|-------|-------|-------|-------|----------------------------| 
A||-------|-------|-------|-------|-------|-------|----------------------------| 
F||-------|-------|-------|-------|-------|-------|--5----5--5--5--5--5--5--5--| 
C||-------|-------|-------|-------|-------|-------|--5----5--5--5--5--5--5--5--| 
G||-------|-------|-------|-------|-------|-------|--3----3--3--3--3--3--3--3--| 
C||-------|-------|-------|-------|-------|-------|----------------------------| 


  PM PM PM PM                                          
  S  S  E  E  Q    Q    E     Q    Q    Q      Q       
---------------------------|-------------------------| 
---------------------------|-------------------------| 
--5--5--5--5--2------------|-------------------------| 
--5--5--5--5--2----0----0--|-----------------/12\----| 
--3--3--3--3--0----0----0--|-----------------/12\----| 
-------------------0----0--|-----------------/12\----| 


  PM PM    PM    PM    PM      PM PM    PM PM    PM      PM PM PM PM        
  S  S  E  S  E  S  E  S  E  S S  S     S  S  E  S  E  S S  S  S  S  Q      
-------------------------------------|------------------------------------| 
-------------------------------------|------------------------------------| 
-------------------------------------|------------------------------------| 
-------------------------------------|-------------------------------3----| 
-------------------------------------|-------------------------------3----| 
--2--2--2--2--1--2--2--2--1--L-2--1--|--1--2--2--2--1--L-2--1--2--3--3----| 


  PM PM    PM    PM    PM      PM PM    PM PM    PM      PM PM PM PM        
  S  S  E  S  E  S  E  S  E  S S  S     S  S  E  S  E  S S  S  S  S  Q      
-------------------------------------|------------------------------------| 
-------------------------------------|------------------------------------| 
-------------------------------------|------------------------------------| 
-------------------------------------|-------------------------------5----| 
-------------------------------------|-------------------------------5----| 
--2--2--2--2--1--2--2--2--1--L-2--1--|--1--2--2--2--1--L-2--1--2--3--5----| 


  PM PM    PM    PM    PM      PM PM    PM PM    PM      PM PM PM PM        
  S  S  E  S  E  S  E  S  E  S S  S     S  S  E  S  E  S S  S  S  S  Q      
-------------------------------------|------------------------------------| 
-------------------------------------|------------------------------------| 
-------------------------------------|------------------------------------| 
-------------------------------------|-------------------------------3----| 
-------------------------------------|-------------------------------3----| 
--2--2--2--2--1--2--2--2--1--L-2--1--|--1--2--2--2--1--L-2--1--2--3--3----| 


  PM PM    PM    PM    PM      PM PM    PM PM    PM      PM PM PM PM        
  S  S  E  S  E  S  E  S  E  S S  S     S  S  E  S  E  S S  S  S  S  Q      
-------------------------------------|------------------------------------| 
-------------------------------------|------------------------------------| 
-------------------------------------|------------------------------------| 
-------------------------------------|-------------------------------5----| 
-------------------------------------|-------------------------------5----| 
--2--2--2--2--1--2--2--2--1--L-2--1--|--1--2--2--2--1--L-2--1--2--3--5----| 


  PM PM    PM    PM    PM      PM PM    PM PM    PM      PM PM PM PM        
  S  S  E  S  E  S  E  S  E  S S  S     S  S  E  S  E  S S  S  S  S  Q      
-------------------------------------|------------------------------------| 
-------------------------------------|------------------------------------| 
-------------------------------------|------------------------------------| 
-------------------------------------|-------------------------------3----| 
-------------------------------------|-------------------------------3----| 
--2--2--2--2--1--2--2--2--1--L-2--1--|--1--2--2--2--1--L-2--1--2--3--3----| 


  PM PM    PM    PM    PM      PM PM    PM PM    PM      PM PM PM PM        
  S  S  E  S  E  S  E  S  E  S S  S     S  S  E  S  E  S S  S  S  S  Q      
-------------------------------------|------------------------------------| 
-------------------------------------|------------------------------------| 
-------------------------------------|------------------------------------| 
-------------------------------------|-------------------------------5----| 
-------------------------------------|-------------------------------5----| 
--2--2--2--2--1--2--2--2--1--L-2--1--|--1--2--2--2--1--L-2--1--2--3--5----| 


  PM PM    PM    PM    PM      PM PM    PM PM    PM      PM PM PM PM        
  S  S  E  S  E  S  E  S  E  S S  S     S  S  E  S  E  S S  S  S  S  Q      
-------------------------------------|------------------------------------| 
-------------------------------------|------------------------------------| 
-------------------------------------|------------------------------------| 
-------------------------------------|-------------------------------3----| 
-------------------------------------|-------------------------------3----| 
--2--2--2--2--1--2--2--2--1--L-2--1--|--1--2--2--2--1--L-2--1--2--3--3----| 


  PM PM    PM    PM    PM      PM PM    PM PM    PM      PM PM PM PM        
  S  S  E  S  E  S  E  S  E  S S  S     S  S  E  S  E  S S  S  S  S  Q      
-------------------------------------|------------------------------------| 
-------------------------------------|------------------------------------| 
-------------------------------------|------------------------------------| 
-------------------------------------|-------------------------------5----| 
-------------------------------------|-------------------------------5----| 
--2--2--2--2--1--2--2--2--1--L-2--1--|--1--2--2--2--1--L-2--1--2--3--5----| 


  PM PM    PM PM                  PM PM    PM PM                 
  S  S  E  S  S  Q    E  E  E     S  S  E  S  S  Q    E  E  E    
-------------------------------|-------------------------------| 
-------------------------------|-------------------------------| 
--------4--------2----0--2--4--|--------4--------2----0--2--4--| 
-------------------------------|-------------------------------| 
--3--3-----3--3----------------|--3--3-----3--3----------------| 
-------------------------------|-------------------------------| 


                                PM PM PM               
  E  E  E  E  E  E  E  E     E  E  E  E  E  E  E  E    
-----------5--L-----L-----|--------------------------| 
-----------------5--L-----|--------------------------| 
--------7-----------7--7--|--L--7--7--7--7--7--7--7--| 
-----7--------------L--7--|--L--7--7--7--7--7--7--7--| 
--5-----------------L--5--|--L--5--5--5--5--5--5--5--| 
--------------------------|--------------------------| 


       PM PM PM PM                         PM PM PM PM PM PM PM      
  Q    S  S  S  S  E  E  E  E     E  E  E  S  E  S  S  S  S  S  E    
-------------------------------|-----------------------------------| 
-------------------------------|-----------------------------------| 
-------------------------------|-----------------------------------| 
--2----2--2--2--2-----0-----0--|--L--2--2--2--2--2--2--2--1--0--0--| 
--2----2--2--2--2-----0-----0--|--L--2--2--2--2--2--2--2--1--0--0--| 
--2----2--2--2--2-----0-----0--|--L--2--2--2--2--2--2--2--1--0--0--| 


           PM PM       PM PM                     PM PM         
  E  E  E  S  S  E  E  S  S  E     E  E  E  Q    E  S  E   S   
--------------------------------|----------------------------| 
--------------------------------|----------------------------| 
-----------------------------5--|--L--5--5-------------------| 
--L--2--2--2--2-----0--0--0--5--|--L--5--5--5----------------| 
--L--2--2--2--2-----0--0--0--3--|--L--3--3--5----------------| 
--L--2--2--2--2-----0--0--0-----|-----------5----0--0--5b--L-| 


       PM PM PM PM                         PM PM PM PM PM PM PM      
  Q    S  S  S  S  E  E  E  E     E  E  E  S  E  S  S  S  S  S  E    
-------------------------------|-----------------------------------| 
-------------------------------|-----------------------------------| 
-------------------------------|-----------------------------------| 
--2----2--2--2--2-----0-----0--|--L--2--2--2--2--2--2--2--1--0--0--| 
--2----2--2--2--2-----0-----0--|--L--2--2--2--2--2--2--2--1--0--0--| 
--2----2--2--2--2-----0-----0--|--L--2--2--2--2--2--2--2--1--0--0--| 


           PM PM       PM PM                     PM PM              
  E  E  E  S  S  E  E  S  S  E     E  E  E  Q    E  S  E   S        
--------------------------------|----------------------------|----| 
--------------------------------|----------------------------|----| 
-----------------------------5--|--L--5--5-------------------|----| 
--L--2--2--2--2-----0--0--0--5--|--L--5--5--5----------------|----| 
--L--2--2--2--2-----0--0--0--3--|--L--3--3--5----------------|----| 
--L--2--2--2--2-----0--0--0-----|-----------5----0--0--5b--L-|----| 


                            PM PM    PM    PM    PM      PM PM   
  Q    Q    Q      Q        S  S  E  S  E  S  E  S  E  S S  S    
-------------------------|-------------------------------------| 
-------------------------|-------------------------------------| 
-------------------------|-------------------------------------| 
-----------------/12\----|-------------------------------------| 
-----------------/12\----|-------------------------------------| 
-----------------/12\----|--2--2--2--2--1--2--2--2--1--L-2--1--| 


  PM PM    PM      PM PM PM PM         PM PM    PM    PM    PM      PM PM   
  S  S  E  S  E  S S  S  S  S  Q       S  S  E  S  E  S  E  S  E  S S  S    
------------------------------------|-------------------------------------| 
------------------------------------|-------------------------------------| 
------------------------------------|-------------------------------------| 
-------------------------------3----|-------------------------------------| 
-------------------------------3----|-------------------------------------| 
--1--2--2--2--1--L-2--1--2--3--3----|--2--2--2--2--1--2--2--2--1--L-2--1--| 


  PM PM    PM      PM PM PM PM         PM PM    PM    PM    PM      PM PM   
  S  S  E  S  E  S S  S  S  S  Q       S  S  E  S  E  S  E  S  E  S S  S    
------------------------------------|-------------------------------------| 
------------------------------------|-------------------------------------| 
------------------------------------|-------------------------------------| 
-------------------------------5----|-------------------------------------| 
-------------------------------5----|-------------------------------------| 
--1--2--2--2--1--L-2--1--2--3--5----|--2--2--2--2--1--2--2--2--1--L-2--1--| 


  PM PM    PM      PM PM PM PM         PM PM    PM    PM    PM      PM PM   
  S  S  E  S  E  S S  S  S  S  Q       S  S  E  S  E  S  E  S  E  S S  S    
------------------------------------|-------------------------------------| 
------------------------------------|-------------------------------------| 
------------------------------------|-------------------------------------| 
-------------------------------3----|-------------------------------------| 
-------------------------------3----|-------------------------------------| 
--1--2--2--2--1--L-2--1--2--3--3----|--2--2--2--2--1--2--2--2--1--L-2--1--| 


  PM PM    PM      PM PM PM PM         PM PM    PM PM                 
  S  S  E  S  E  S S  S  S  S  Q       S  S  E  S  S  Q    E  E  E    
------------------------------------|-------------------------------| 
------------------------------------|-------------------------------| 
------------------------------------|--------4--------2----0--2--4--| 
-------------------------------5----|-------------------------------| 
-------------------------------5----|--3--3-----3--3----------------| 
--1--2--2--2--1--L-2--1--2--3--5----|-------------------------------| 


  PM PM    PM PM                                            
  S  S  E  S  S  Q    E  E  E     E  E  E  E  E  E  E  E    
-------------------------------|-----------5--L-----L-----| 
-------------------------------|-----------------5--L-----| 
--------4--------2----0--2--4--|--------7-----------7--7--| 
-------------------------------|-----7--------------L--7--| 
--3--3-----3--3----------------|--5-----------------L--5--| 
-------------------------------|--------------------------| 


     PM PM PM                     PM PM PM PM               
  E  E  E  E  E  E  E  E     Q    S  S  S  S  E  E  E  E    
--------------------------|-------------------------------| 
--------------------------|-------------------------------| 
--L--7--7--7--7--7--7--7--|-------------------------------| 
--L--7--7--7--7--7--7--7--|--2----2--2--2--2-----0-----0--| 
--L--5--5--5--5--5--5--5--|--2----2--2--2--2-----0-----0--| 
--------------------------|--2----2--2--2--2-----0-----0--| 


           PM PM PM PM PM PM PM                PM PM       PM PM      
  E  E  E  S  E  S  S  S  S  S  E     E  E  E  S  S  E  E  S  S  E    
-----------------------------------|--------------------------------| 
-----------------------------------|--------------------------------| 
-----------------------------------|-----------------------------5--| 
--L--2--2--2--2--2--2--2--1--0--0--|--L--2--2--2--2-----0--0--0--5--| 
--L--2--2--2--2--2--2--2--1--0--0--|--L--2--2--2--2-----0--0--0--3--| 
--L--2--2--2--2--2--2--2--1--0--0--|--L--2--2--2--2-----0--0--0-----| 


                PM PM               PM PM PM PM               
  E  E  E  Q    E  S  E   S    Q    S  S  S  S  E  E  E  E    
----------------------------|-------------------------------| 
----------------------------|-------------------------------| 
--L--5--5-------------------|-------------------------------| 
--L--5--5--5----------------|--2----2--2--2--2-----0-----0--| 
--L--3--3--5----------------|--2----2--2--2--2-----0-----0--| 
-----------5----0--0--5b--L-|--2----2--2--2--2-----0-----0--| 


           PM PM PM PM PM PM PM                PM PM       PM PM      
  E  E  E  S  E  S  S  S  S  S  E     E  E  E  S  S  E  E  S  S  E    
-----------------------------------|--------------------------------| 
-----------------------------------|--------------------------------| 
-----------------------------------|-----------------------------5--| 
--L--2--2--2--2--2--2--2--1--0--0--|--L--2--2--2--2-----0--0--0--5--| 
--L--2--2--2--2--2--2--2--1--0--0--|--L--2--2--2--2-----0--0--0--3--| 
--L--2--2--2--2--2--2--2--1--0--0--|--L--2--2--2--2-----0--0--0-----| 


                PM PM                                          
  E  E  E  Q    E  S  E   S     E   E   E   E   E   Q     E    
----------------------------|--------------------------------| 
----------------------------|--10--10--10--10--10--12----13--| 
--L--5--5-------------------|---x---x---x---x---x---x-----x--| 
--L--5--5--5----------------|---7---7---7---7---7---9----10--| 
--L--3--3--5----------------|--------------------------------| 
-----------5----0--0--5b--L-|--------------------------------| 


                             PM PM PM PM PM PM PM PM PM PM PM PM         
  E  E  E  E  E  E  E  E     S  S  S  S  S  S  S  S  S  S  S  S  Q       
--------------------------|--------------------------------------------| 
--8--8--8--6--6--6--6--6--|--------------------------------------------| 
--x--x--x--x--x--x--x--x--|--------------------------------------------| 
--5--5--5--3--3--3--3--3--|--------------------------------------7\----| 
--------------------------|--------------------------------------7\----| 
--------------------------|--2--2--2--2--0--0--3--3--3--3--2--2--7\----| 


  PM PM PM PM PM PM PM PM PM PM PM PM                                          
  S  S  S  S  S  S  S  S  S  S  S  S  Q         E   E   E   E   E   Q     E    
--------------------------------------------|--------------------------------| 
--------------------------------------------|--10--10--10--10--10--12----13--| 
--------------------------------------------|---x---x---x---x---x---x-----x--| 
--------------------------------------7\----|---7---7---7---7---7---9----10--| 
--------------------------------------7\----|--------------------------------| 
--2--2--2--2--0--0--3--3--3--3--2--2--7\----|--------------------------------| 


                             PM PM PM PM PM PM PM PM PM PM PM PM         
  E  E  E  E  E  E  E  E     S  S  S  S  S  S  S  S  S  S  S  S  Q       
--------------------------|--------------------------------------------| 
--8--8--8--6--6--6--6--6--|--------------------------------------------| 
--x--x--x--x--x--x--x--x--|--------------------------------------------| 
--5--5--5--3--3--3--3--3--|--------------------------------------7\----| 
--------------------------|--------------------------------------7\----| 
--------------------------|--2--2--2--2--0--0--3--3--3--3--2--2--7\----| 


  PM PM PM PM PM PM PM PM PM PM                                             
                                |--3--|                                     
  S  S  S  S  S  S  S  S  S  S  S  S  S  E  E      E    H         Q    E    
-----------------------------------------------|--------------------------| 
-----------------------------------------------|--10b--10b--------L----L--| 
--------------------------------9-10-12-12--9--|--------------------------| 
-----------------------------------------------|--------------------------| 
-----------------------------------------------|--------------------------| 
--2--2--2--2--0--0--3--3--3--3-----------------|--------------------------| 


                     |--3--|                                     
   Q     E   E    E  S  S  S  E  E      E    H         Q    E    
------------------------------------|--------------------------| 
--10b----L--10b--10-----------------|--15b--15b--------L----L--| 
---------------------9-10-12-12--9--|--------------------------| 
------------------------------------|--------------------------| 
------------------------------------|--------------------------| 
------------------------------------|--------------------------| 


                                                    W                   
                       |--3--|                                          
   E   E   E   E   E   S  S  S  E   E      E   S S  Q    E   E  E  E    
---------------------------------------|------------------------------| 
--17------15---------------------------|------------------------------| 
------16------14--16--14-16-14-12------|--12--14---14----L--/9--7-----| 
-----------------------------------14--|---------------------------7--| 
---------------------------------------|------------------------------| 
---------------------------------------|------------------------------| 


                                           |-3-|                  
   E  E   E   H        E     S S S S E   S S S S S S S S S S  S   
--------------------------|-------------------------------------| 
--------------------------|-------------------------------------| 
--------------------------|----------------------------7---9-12-| 
-------------/7--------L--|--7-5-----7~--L-7-5---5-7-9---9------| 
--10--7--10---------------|------7-5-----------7----------------| 
--------------------------|-------------------------------------| 


                                                               |---3---|         
  S S  S  S S  S S  S  S  S  S  S  S  S  S  S     H        E   E   E   E   E     
-----------------7-12-10-15-15-12-------19----|--22--------L------17--19--18b--| 
------10-12-8-10------------------15-15----20-|---------------17---------------| 
--7-9-----------------------------------------|--------------------------------| 
----------------------------------------------|--------------------------------| 
----------------------------------------------|--------------------------------| 
----------------------------------------------|--------------------------------| 


                        |---3---|      |---3---|   |---3---|                    
  Q     E    Q      E   E   E   E      E   E   E   E   E   E  E    S  S  Q      
--L----19b--18b----17--14--15--17--|--14--15--17--14--15--17--L\--15-17-14----| 
-----------------------------------|------------------------------------------| 
-----------------------------------|------------------------------------------| 
-----------------------------------|------------------------------------------| 
-----------------------------------|------------------------------------------| 
-----------------------------------|------------------------------------------| 


  E   S  S  S  S  S  S  S  S  S  S  S  S  S  S     H          E   Q      S  S   
--L-----------15-19-17-------------------------|-------------19------------19-| 
-----15-17-19----------20-19-17-20-19-17-20-15-|--17b---------L--17b----15--L-| 
-----------------------------------------------|------------------------------| 
-----------------------------------------------|------------------------------| 
-----------------------------------------------|------------------------------| 
-----------------------------------------------|------------------------------| 


   E  S  S  S  S  S  Q    E  S  S  S   
-------------------------------------| 
--15--L----15----15-17----L--L-17-19-| 
--------16----16---------------------| 
-------------------------------------| 
-------------------------------------| 
-------------------------------------| 


   S  S  Q     E   S  S  S  S  S  S  S  S     S  S  S  S  S  S  H        E    
-----17-----------------------------------|---------------------------------| 
--20----19b----L--17-19-20-17-19-15----15-|--17-15----------15-17--------L--| 
------------------------------------16----|--------16-14-16-----------------| 
------------------------------------------|---------------------------------| 
------------------------------------------|---------------------------------| 
------------------------------------------|---------------------------------| 


                                                           T                     
   E   Q     Q     Q     E      E   Q     H         E      H          H          
----------------------------|--------------------------|-----------------------| 
----------------------------|--------------------------|-----------------------| 
--12--11----14----11----12--|--12--11----14b--------L--|--15b--------14--------| 
----------------------------|--------------------------|-----------------------| 
----------------------------|--------------------------|-----------------------| 
----------------------------|--------------------------|-----------------------| 


  W                   W                   W                                  
-------------------|-------------------|-------------------|-------|-------| 
-------------------|-------------------|-------------------|-------|-------| 
--L----------------|--9----------------|--L----------------|-------|-------| 
-------------------|-------------------|-------------------|-------|-------| 
-------------------|-------------------|-------------------|-------|-------| 
-------------------|-------------------|-------------------|-------|-------| 


                       PM PM PM PM PM PM PM    PM PM PM PM                      
                  Q    E  E  S  S  E  E  E     S  S  E  E  Q    Q    E          
-------|-------|----------------------------|---------------------------|-----| 
-------|-------|----------------------------|---------------------------|-----| 
-------|-------|--5----5--5--5--5--5--5--5--|--5--5--5--5--2------------|-----| 
-------|-------|--5----5--5--5--5--5--5--5--|--5--5--5--5--2----0----0--|-----| 
-------|-------|--3----3--3--3--3--3--3--3--|--3--3--3--3--0----0----0--|-----| 
-------|-------|----------------------------|-------------------0----0--|-----| 


             PM PM PM PM                         PM PM PM PM PM PM PM      
        Q    S  S  S  S  E  E  E  E     E  E  E  S  E  S  S  S  S  S  E    
-----|-------------------------------|-----------------------------------| 
-----|-------------------------------|-----------------------------------| 
-----|-------------------------------|-----------------------------------| 
-----|--2----2--2--2--2-----0-----0--|--L--2--2--2--2--2--2--2--1--0--0--| 
-----|--2----2--2--2--2-----0-----0--|--L--2--2--2--2--2--2--2--1--0--0--| 
-----|--2----2--2--2--2-----0-----0--|--L--2--2--2--2--2--2--2--1--0--0--| 


           PM PM       PM PM                     PM PM         
  E  E  E  S  S  E  E  S  S  E     E  E  E  Q    E  S  E   S   
--------------------------------|----------------------------| 
--------------------------------|----------------------------| 
-----------------------------5--|--L--5--5-------------------| 
--L--2--2--2--2-----0--0--0--5--|--L--5--5--5----------------| 
--L--2--2--2--2-----0--0--0--3--|--L--3--3--5----------------| 
--L--2--2--2--2-----0--0--0-----|-----------5----0--0--5b--L-| 


       PM PM PM PM                         PM PM PM PM PM PM PM      
  Q    S  S  S  S  E  E  E  E     E  E  E  S  E  S  S  S  S  S  E    
-------------------------------|-----------------------------------| 
-------------------------------|-----------------------------------| 
-------------------------------|-----------------------------------| 
--2----2--2--2--2-----0-----0--|--L--2--2--2--2--2--2--2--1--0--0--| 
--2----2--2--2--2-----0-----0--|--L--2--2--2--2--2--2--2--1--0--0--| 
--2----2--2--2--2-----0-----0--|--L--2--2--2--2--2--2--2--1--0--0--| 


           PM PM       PM PM                     PM PM         
  E  E  E  S  S  E  E  S  S  E     E  E  E  Q    E  S  E   S   
--------------------------------|----------------------------| 
--------------------------------|----------------------------| 
-----------------------------5--|--L--5--5-------------------| 
--L--2--2--2--2-----0--0--0--5--|--L--5--5--5----------------| 
--L--2--2--2--2-----0--0--0--3--|--L--3--3--5----------------| 
--L--2--2--2--2-----0--0--0-----|-----------5----0--0--5b--L-| 


       PM PM PM PM                         PM PM PM PM PM PM PM      
  Q    S  S  S  S  E  E  E  E     E  E  E  S  E  S  S  S  S  S  E    
-------------------------------|-----------------------------------| 
-------------------------------|-----------------------------------| 
-------------------------------|-----------------------------------| 
--2----2--2--2--2-----0-----0--|--L--2--2--2--2--2--2--2--1--0--0--| 
--2----2--2--2--2-----0-----0--|--L--2--2--2--2--2--2--2--1--0--0--| 
--2----2--2--2--2-----0-----0--|--L--2--2--2--2--2--2--2--1--0--0--| 


           PM PM       PM PM                     PM PM         
  E  E  E  S  S  E  E  S  S  E     E  E  E  Q    E  S  E   S   
--------------------------------|----------------------------| 
--------------------------------|----------------------------| 
-----------------------------5--|--L--5--5-------------------| 
--L--2--2--2--2-----0--0--0--5--|--L--5--5--5----------------| 
--L--2--2--2--2-----0--0--0--3--|--L--3--3--5----------------| 
--L--2--2--2--2-----0--0--0-----|-----------5----0--0--5b--L-| 


       PM PM PM PM                         PM PM PM PM PM PM PM      
  Q    S  S  S  S  E  E  E  E     E  E  E  S  E  S  S  S  S  S  E    
-------------------------------|-----------------------------------| 
-------------------------------|-----------------------------------| 
-------------------------------|-----------------------------------| 
--2----2--2--2--2-----0-----0--|--L--2--2--2--2--2--2--2--1--0--0--| 
--2----2--2--2--2-----0-----0--|--L--2--2--2--2--2--2--2--1--0--0--| 
--2----2--2--2--2-----0-----0--|--L--2--2--2--2--2--2--2--1--0--0--| 


           PM PM       PM PM                     PM PM              
  E  E  E  S  S  E  E  S  S  E     E  E  E  Q    E  S  E   S        
--------------------------------|----------------------------|----| 
--------------------------------|----------------------------|----| 
-----------------------------5--|--L--5--5-------------------|----| 
--L--2--2--2--2-----0--0--0--5--|--L--5--5--5----------------|----| 
--L--2--2--2--2-----0--0--0--3--|--L--3--3--5----------------|----| 
--L--2--2--2--2-----0--0--0-----|-----------5----0--0--5b--L-|----| 


Guitar 3 

(00:00) 

     ^        ^                                           
     E  E  E  E  E  E  E  E     E  E  E  E  E  E  E  E    
E||--------------------------|--------------------------| 
B||--3--1--L--3--L--L--L--L--|--------------------------| 
G||--2--L--L--2--L--L--L--L--|--2--0--0--0--------------| 
D||--0--L--0--0--L--0--0--0--|--3--3--3--3--3--2--2--2--| 
A||--------------------------|--------------3--3--3--3--| 
E||--------------------------|--------------------------| 


  ^        ^                                           
  E  E  E  E  E  E  E  E     E  E  E  E  E  E  E  E    
--------------------------|--------------------------| 
--3--1--L--3--L--L--L--L--|--------------------------| 
--2--L--L--2--L--L--L--L--|--2--0--0--0--------------| 
--0--L--0--0--L--0--0--0--|--3--3--3--3--3--2--2--2--| 
--------------------------|--------------3--3--3--3--| 
--------------------------|--------------------------| 


  ^        ^                                                                   
  E  E  E  E  E  E  E  E     E  E  E  E  E  E  E  E                            
--------------------------|--------------------------|-----|-----|-----|-----| 
--3--1--L--3--L--L--L--L--|--------------------------|-----|-----|-----|-----| 
--2--L--L--2--L--L--L--L--|--2--0--0--0--------------|-----|-----|-----|-----| 
--0--L--0--0--L--0--0--0--|--3--3--3--3--3--2--2--2--|-----|-----|-----|-----| 
--------------------------|--------------3--3--3--3--|-----|-----|-----|-----| 
--------------------------|--------------------------|-----|-----|-----|-----| 


(02:41) 

  ^        ^                                           
  E  E  E  E  E  E  E  E     E  E  E  E  E  E  E  E    
--------------------------|--------------------------| 
--3--1--L--3--L--L--L--L--|--------------------------| 
--2--L--L--2--L--L--L--L--|--2--0--0--0--------------| 
--0--L--0--0--L--0--0--0--|--3--3--3--3--3--2--2--2--| 
--------------------------|--------------3--3--3--3--| 
--------------------------|--------------------------| 


  ^        ^                                           
  E  E  E  E  E  E  E  E     E  E  E  E  E  E  E  E    
--------------------------|--------------------------| 
--3--1--L--3--L--L--L--L--|--------------------------| 
--2--L--L--2--L--L--L--L--|--2--0--0--0--------------| 
--0--L--0--0--L--0--0--0--|--3--3--3--3--3--2--2--2--| 
--------------------------|--------------3--3--3--3--| 
--------------------------|--------------------------| 


  ^        ^                                                                   
  E  E  E  E  E  E  E  E     E  E  E  E  E  E  E  E                            
--------------------------|--------------------------|-----|-----|-----|-----| 
--3--1--L--3--L--L--L--L--|--------------------------|-----|-----|-----|-----| 
--2--L--L--2--L--L--L--L--|--2--0--0--0--------------|-----|-----|-----|-----| 
--0--L--0--0--L--0--0--0--|--3--3--3--3--3--2--2--2--|-----|-----|-----|-----| 
--------------------------|--------------3--3--3--3--|-----|-----|-----|-----| 
--------------------------|--------------------------|-----|-----|-----|-----| 

(03:29) 

                    ^        ^                                           
                    E  E  E  E  E  E  E  E     E  E  E  E  E  E  E  E    
-----|-----|-----|--------------------------|--------------------------| 
-----|-----|-----|--3--1--L--3--L--L--L--L--|--------------------------| 
-----|-----|-----|--2--L--L--2--L--L--L--L--|--2--0--0--0--------------| 
-----|-----|-----|--0--L--0--0--L--0--0--0--|--3--3--3--3--3--2--2--2--| 
-----|-----|-----|--------------------------|--------------3--3--3--3--| 
-----|-----|-----|--------------------------|--------------------------| 


  ^        ^                                           
  E  E  E  E  E  E  E  E     E  E  E  E  E  E  E  E    
--------------------------|--------------------------| 
--3--1--L--3--L--L--L--L--|--------------------------| 
--2--L--L--2--L--L--L--L--|--2--0--0--0--------------| 
--0--L--0--0--L--0--0--0--|--3--3--3--3--3--2--2--2--| 
--------------------------|--------------3--3--3--3--| 
--------------------------|--------------------------| 


  ^        ^                                           
  E  E  E  E  E  E  E  E     E  E  E  E  E  E  E  E    
--------------------------|--------------------------| 
--3--1--L--3--L--L--L--L--|--------------------------| 
--2--L--L--2--L--L--L--L--|--2--0--0--0--------------| 
--0--L--0--0--L--0--0--0--|--3--3--3--3--3--2--2--2--| 
--------------------------|--------------3--3--3--3--| 
--------------------------|--------------------------| 


  ^        ^                                                  
  E  E  E  E  E  E  E  E     E  E  E  E  E  E  E  E           
--------------------------|--------------------------|-----|| 
--3--1--L--3--L--L--L--L--|--------------------------|-----|| 
--2--L--L--2--L--L--L--L--|--2--0--0--0--------------|-----|| 
--0--L--0--0--L--0--0--0--|--3--3--3--3--3--2--2--2--|-----|| 
--------------------------|--------------3--3--3--3--|-----|| 
--------------------------|--------------------------|-----|| 


Duration Legend 
--------------- 
W - whole 
H - half 
Q - quarter 
E - 8th 
S - 16th 
T - 32nd 
X - 64th 
. - note dotted 
|-n-|  - n-tuplets 


Tablature Legend 
---------------- 
L - tied note 
x - dead note 
g - grace note 
(n) - ghost note 
> - accentuded note 
NH - natural harmonic 
AH - artificial harmonic 
TH - tapped harmonic 
SH - semi harmonic 
PH - pitch harmonic 
h - hammer on 
p - pull off 
b - bend 
br - bendRelease 
pb - preBend 
pbr - preBendRelease 
brb - bendReleaseBend 
\n/ - tremolo bar dip 
\n - tremolo bar dive 
-/n - tremolo bar Release up 
/n\ - tremolo bar inverted dip 
/n - tremolo bar return 
-\n - tremolo bar Release down 
S - shift slide 
s - legato slide 
/ -  slide into from below or out of upwards 
\ -  slide into from above or out of downwards 
~ - vibrato 
W - wide vibrato 
tr - trill 
TP - tremolo picking 
T - tapping 
S - slap 
P - pop 
< - fade in 
^ - brush up 
v - brush down 


That is all! I hope this helped, and be sure to check out my cover if you are 
having problems with the tab. Thanks, oh and one last thing... ROCK OUT!!!! 
		  

See also:

tabs Marilyn Manson - Sweet Dreams (complete) tabs Avenged Sevenfold - Heretic tabs Avenged Sevenfold - Hail To The King tabs Slayer - Seasons In The Abyss tabs Pantera - Walk tabs Avenged Sevenfold - Scream
e-chords

Other versions:

tabs Five Finger Death Punch - Watch You Bleed
auto scroll beats size up size down change color hide chords drawings
tab show chords e-chords YouTube Clip e-chords hide all tabs e-chords go to top tab

share