Five Finger Death Punch

Wash It All Away

Five Finger Death Punch

tabs

by  EDUCASTILHO

save to print version add songbook text version e-mail correct tuner
chordsukulelecavacokeyboardtabbassdrumsharmonicaflute Guitar Pro
close

there isn't a video lesson for this song

chords

Wash It All Away

	  		|--------------------------------------------------------------------------------------------------------| 
|                                          INTRO (00:00-00:31)                                           | 
|--------------------------------------------------------------------------------------------------------| 

Guitar 1 (w/ clean and delay) 

    .......................... 
 B|------------------------|-------------------------| 
F#|------------------------|-------------------------| 
 D|----------0-----------0-|-------------------------| x3 
 A|-------9-----------8----|-------7-----5-----------| 
 E|----7-----------7-------|--/s7-----------7--5-s7--| 
 B|-0-----------0----------|-0--------0--------------| 

    ....................... 
 B|------------------------| 
F#|------------------------| 
 D|----------0-----------0-| 
 A|-------9-----------8----| 
 E|----7-----------7-------| 
 B|-0-----------0----------| 

Guitars 1 and 2 (w/ dist) 

             ........................... 
 B|------------|------|------|------|------------------------| 
F#|------------|------|------|------|------------------------| 
 D|------------|------|------|------|------------------------| 
 A|------------|------|------|------|---7-7-7----------------| 
 E|-------3--2-|------|------|------|---5-5-5-------------2--| 
 B|-------1--0-|------|------|------|-----------6--5-5-3--0--| 
                                                *  * * * 
      .......   ............                       ..........   ............ 
 B|-----------------------|-----------------------|------------------------|-----------------------| 
F#|-----------------------|-----------------------|------------------------|-----------------------| 
 D|---------0-----------0-|-----------------------|----------0-----------0-|-----------------------| x2 
 A|------9-----------8----|------7-----5----------|-------9-----------8----|------7-----5----------| 
 E|---7-----------7-------|-/s7-----------7--5-s7-|----7-----------7-------|-/s7-----------7--3--2-| 
 B|------------0----------|---------0-------------|-0-----------0----------|---------0--------1--0-| 
                                    *                                                * 

|--------------------------------------------------------------------------------------------------------| 
|                                          VERSE (00:31-00:47)                                           | 
|--------------------------------------------------------------------------------------------------------| 

Guitars 1 and 2 (w/ dist) 

 B|------------------------|-------------------------| 
F#|------------------------|-------------------------| 
 D|------------------------|-------------------------| 
 A|------------------------|-------------------------| 
 E|---2--------------------|-------------------3--2--| 
 B|---0--0--0--0-0-0--0--0-|-0--0--0--0--0--0--1--0--| 
         *  *  * * *  *  *   *  *  *  *  *  * 
 B|-----------------------|--------------------------| 
F#|-----------------------|--------------------------| 
 D|-----------------------|--------------------------| 
 A|-----------------------|----3--2------------------| 
 E|--2--------------------|----1--0------3------3--2-| 
 B|--0--0--0--0-0-0--0--0-|-0--------0-0-1--0-0-1--0-| 
        *  *  * * *  *  *   *        * *    * *  
 B|------------------------|-------------------------| 
F#|------------------------|-------------------------| 
 D|------------------------|-------------------------| 
 A|------------------------|-------------------------| 
 E|---2--------------------|-------------------3--2--| 
 B|---0--0--0--0-0-0--0--0-|-0--0--0--0--0--0--1--0--| 
         *  *  * * *  *  *   *  *  *  *  *  * 
 B|-----------------------|--------------------------| 
F#|-----------------------|--------------------------| 
 D|-----------------------|--------------------------| 
 A|-----------------------|----3--2----------------5-| 
 E|--2--------------------|----1--0------3------3--3-| 
 B|--0--0--0--0-0-0--0--0-|-0--------0-0-1--0-0-1----| 
        *  *  * * *  *  *   *        * *    * *  

|--------------------------------------------------------------------------------------------------------| 
|                                        Pre-Chorus (00:47-00:53)                                        | 
|--------------------------------------------------------------------------------------------------------| 

Guitars 1 and 2 (w/ dist) 

 B|---------------------|----------------------|-------------------------| 
F#|---------------------|----------------------|-------------------------| 
 D|---------------------|----------------------|-------------------------| 
 A|---5---------------7-|---7------------------|-------------------------| 
 E|---3-----5---5-----5-|---5-----7------------|-2-----------------------| 
 B|------0--3---3--0----|------0--5---6-6-5--3-|-0--0--0--0--0--0--0--0--| 
         *         *           *      * * *  *      *  *  *  *  *  *  * 

|--------------------------------------------------------------------------------------------------------| 
|                                          Chorus (00:53-01:08)                                          | 
|--------------------------------------------------------------------------------------------------------| 

Guitars 1 and 2 (w/ dist) 

    .......  ........   .........   .........   .........   .........   .........   .........  
 B|------------|----------|-----------|-----------|-----------|-----------|-----------|-----------| 
F#|------------|----------|-----------|-----------|-----------|-----------|-----------|-----------| 
 D|------------|----------|-----------|-----------|-----------|-----------|-----------|-----------| 
 A|-2----------|--------7-|-----------|---------2-|-----------|---------7-|-----------|-----------| 
 E|-0--------2-|--------5-|---------5-|---------0-|---------2-|---------5-|---------5-|---------2-| 
 B|-------0--0-|-----0----|------0--0-|------0----|------0--0-|------0----|------0--0-|------0--0-| 
          *          *           *           *           *           *           *           * 

Guitar 3 (w/ clean and Chorus) 

                 ..........     .........    
 B|------------|------------|------------|--------------| 
F#|------------|-------0----|---------0--|--------------| 
 D|------------|----------0-|---0--------|--------------| x2 
 A|------------|----0-------|------7-----|--7---5---4~~~| 
 E|------------|-2----------|------------|--------------| 
 B|------------|-------------------------|--------------| 

|--------------------------------------------------------------------------------------------------------| 
|                                        POST-Chorus (01:08-01:15)                                       | 
|--------------------------------------------------------------------------------------------------------| 

Guitars 1 and 2 (w/ dist) 

      .......   ............                       ..........   ............ 
 B|-----------------------|-----------------------|------------------------|-----------------------| 
F#|-----------------------|-----------------------|------------------------|-----------------------| 
 D|---------0-----------0-|-----------------------|----------0-----------0-|-----------------------| 
 A|------9-----------8----|------7-----5----------|-------9-----------8----|------7-----5----------| 
 E|---7-----------7-------|-/s7-----------7--5-s7-|----7-----------7-------|-/s7-----------7--3--2-| 
 B|------------0----------|---------0-------------|-0-----------0----------|---------0--------1--0-| 
                                    *                                                * 

|--------------------------------------------------------------------------------------------------------| 
|                                         verse 2 (01:15-01:31)                                          | 
|--------------------------------------------------------------------------------------------------------| 
                                              same as VERSE 
|--------------------------------------------------------------------------------------------------------| 
|                                       Pre-Chorus 2 (01:31-01:37)                                       | 
|--------------------------------------------------------------------------------------------------------| 
                                            same as Pre-Chorus 
|--------------------------------------------------------------------------------------------------------| 
|                                         Chorus 2 (01:37-01:52)                                         | 
|--------------------------------------------------------------------------------------------------------| 
                                              same as Chorus 
|--------------------------------------------------------------------------------------------------------| 
|                                      BRIDGE + SOLO (01:52-02:48)                                       | 
|--------------------------------------------------------------------------------------------------------| 

Guitars 1 and 2 (w/ dist) 
                                                              -------------------| 
 B|------------------|------------|------------------|------------|              | 
F#|------------------|------------|------------------|------------|              | 
 D|------------------|------------|--------------4---|-----7--7---|              | 
 A|--------------5---|-----5--7---|--------------2---|-----5--4---|              | 
 E|-3-3-3--3--3--3---|-----3--5---|------------------|------------|              | 
 B|------------------|------------|-0-0-0--0--0------|------------|              | 
    * * *  *  *                     * * *  *  *                                  | x2 
 B|------------------|------------|------------------|---------------------|     | 
F#|------------------|------------|------------------|---------------------|     | 
 D|------------------|------------|--------------4---|--------------7--7---|     | 
 A|--------------5---|-----5--7---|--------------2---|-0--0-0-0--0--5--4---|     | 
 E|-3-3-3--3--3--3---|-----3--5---|------------------|---------------------|     | 
 B|------------------|------------|-0-0-0--0--0------|---------------------|     | 
    * * *  *  *                     * * *  *  *        *  * * *  *   ------------| 

 B|------------------|------------|------------------|------------| 
F#|------------------|------------|------------------|------------| 
 D|------------------|------------|--------------4---|-----7--7---| 
 A|--------------5---|-----5--7---|--------------2---|-----5--4---| 
 E|-3-3-3--3--3--3---|-----3--5---|------------------|------------| 
 B|------------------|------------|-0-0-0--0--0------|------------| 
    * * *  *  *                     * * *  *  *                              ... 
 B|------------------|------------|------------------|--------------------------| 
F#|------------------|------------|------------------|--------------------------| 
 D|------------------|------------|--------------4---|--------------------------| 
 A|--------------5---|-----5--7---|--------------2---|--------------7-----------| 
 E|-3-3-3--3--3--3---|-----3--5---|------------------|--------------5-----3--2--| 
 B|------------------|------------|-0-0-0--0--0------|-3-3-3--3--3-----0--1--0--| 
    * * *  *  *                     * * *  *  *        * * *  *  *     * 

   ........................ 
 B|------|------|------|------------------------|-------| 
F#|------|------|------|------------------------|-------| 
 D|------|------|------|------------------------|-------| 
 A|------|------|------|---7-7-7-------------7--|---7---| 
 E|------|------|------|---5-5-5-------------5--|---5---| 
 B|------|------|------|-----------6--5-5-3-----|-------| 
                                   *  * * * 

|--------------------------------------------------------------------------------------------------------| 
|                                         Chorus 3 (02:48-03:19)                                         | 
|--------------------------------------------------------------------------------------------------------| 

Guitars 1 and 2 (w/ dist) 

    .......  ........   .........   .........   .........   .........   .........   .........  
 B|------------|----------|-----------|-----------|-----------|-----------|-----------|-----------| 
F#|------------|----------|-----------|-----------|-----------|-----------|-----------|-----------| 
 D|------------|----------|-----------|-----------|-----------|-----------|-----------|-----------| x2 
 A|-2----------|--------7-|-----------|---------2-|-----------|---------7-|-----------|-----------| 
 E|-0--------2-|--------5-|---------5-|---------0-|---------2-|---------5-|---------5-|---------2-| 
 B|-------0--0-|-----0----|------0--0-|------0----|------0--0-|------0----|------0--0-|------0--0-| 
          *          *           *           *           *           *           *           * 

Guitar 3 (w/ clean and Chorus) 

                 ..........     .........    
 B|------------|------------|------------|--------------| 
F#|------------|-------0----|---------0--|--------------| 
 D|------------|----------0-|---0--------|--------------| x4 
 A|------------|----0-------|------7-----|--7---5---4~~~| 
 E|------------|-2----------|------------|--------------| 
 B|------------|-------------------------|--------------| 

|--------------------------------------------------------------------------------------------------------| 
|                                          OUTRO (03:19-03:44)                                           | 
|--------------------------------------------------------------------------------------------------------| 

Guitars 1 and 2 (w/ dist) 

     .......   ............                       ..........   ............ 
 B|-----------------------|-----------------------|------------------------|-----------------------| 
F#|-----------------------|-----------------------|------------------------|-----------------------| 
 D|---------0-----------0-|-----------------------|----------0-----------0-|-----------------------| x2 
 A|------9-----------8----|------7-----5----------|-------9-----------8----|------7-----5----------| 
 E|---7-----------7-------|-/s7-----------7--5-s7-|----7-----------7-------|-/s7-----------7--3--2-| 
 B|------------0----------|---------0-------------|-0-----------0----------|---------0--------1--0-| 
                                    *                                                * 

                      .......... 
 B|---------------------|-------| 
F#|---------------------|-------| 
 D|---------------------|-------| 
 A|---------------------|-------| 
 E|------3--2------3--2-|-------| 
 B|---0--1--0---0--1--0-|-------| 
      *         * 
		  

See also:

tabs Marilyn Manson - Sweet Dreams (complete) tabs Avenged Sevenfold - Heretic tabs Avenged Sevenfold - Hail To The King tabs Slayer - Seasons In The Abyss tabs Pantera - Walk tabs Avenged Sevenfold - Scream
e-chords

Other versions:

tabs Five Finger Death Punch - Wash It All Away
auto scroll beats size up size down change color hide chords drawings
tab show chords e-chords YouTube Clip e-chords hide all tabs e-chords go to top tab

share