Five Finger Death Punch

Under And Over It

Five Finger Death Punch

tabs Expert expert

by  EDSOOLIVEIRA

save to print version add songbook text version e-mail correct tuner
chordsukulelecavacokeyboardtabbassdrumsharmonicaflute Guitar Pro
close

there isn't a video lesson for this song

chords

Under And Over It

	  		
Tuning: B   E   A   D   F#   B  
 

Intro 
x4 
|--------------------------------| 
|--------------------------------| 
|--------------------------------| 
|--------------------------------| 
|5--------------3-2--------------| 
|3-0-0-0-000000-1-0-0-0-0-000000-| 
   . . . ......     . . . ......  

Pre-Verse 1 
x2 
|----------------|----------------|----------------|-------------------| 
|----------------|----------------|----------------|-------------------| 
|----------------|----------------|----------------|9-9-9-9-9-10-10-10\| 
|----------------|----------------|----------------|-------------------| 
|3---3---3-5-3---|3---3---3-5-3---|3---3---3-5-3---|7-7-7-7-7-8--8--8-\| 
|1---1---1-3-1---|1---1---1-3-1---|1---1---1-3-1---|-------------------| 
                  .  
                                
Verse 1 
x3 
|----------------|----------------|----------------|-------------------| 
|----------------|----------------|----------------|-------------------| 
|----------------|----------------|----------------|9-9-9-9-9-10-10-10\| 
|----------------|----------------|----------------|-------------------| 
|2---2---2-3-2---|2---2---2-3-2---|2---2---2-3-2---|7-7-7-7-7-8--8--8-\| 
|0---0---0-1-0---|0---0---0-1-0---|0---0---0-1-0---|-------------------| 
                  .       
                           
x1 
|----------------|----------------|----------------|----------------------| 
|----------------|----------------|----------------|----------------------| 
|----------------|----------------|----------------|9-9-11-11-12-12-10-10\| 
|----------------|----------------|----------------|----------------------| 
|2---2---2-3-2---|-2-3-2-2-2-3-2--|2---2---2-3-2---|7-7-9--9--10-10-8--8-\| 
|0---0---0-1-0---|-0-1-0-0-0-1-0--|0---0---0-1-0---|----------------------|                    
                         . 

Chorus 1 
x4 
|----------------------------------| 
|----------------------------------| 
|----------------------------------| 
|9---7-----7---------5-----5-----5-| 
|7---5-----5---7-----3-----3-----3-| 
|------000-----5-000---000---000---| 
       ...       ...   ...   ... 

Pre-Verse 2 
x2 
|----------------|----------------|----------------|-------------------| 
|----------------|----------------|----------------|-------------------| 
|----------------|----------------|----------------|9-9-9-9-9-10-10-10\| 
|----------------|----------------|----------------|-------------------| 
|3---3---3-5-3---|3---3---3-5-3---|3---3---3-5-3---|7-7-7-7-7-8--8--8-\| 
|1---1---1-3-1---|1---1---1-3-1---|1---1---1-3-1---|-------------------| 
                  .  
                                
Verse 2 
x3 
|----------------|----------------|----------------|-------------------| 
|----------------|----------------|----------------|-------------------| 
|----------------|----------------|----------------|9-9-9-9-9-10-10-10\| 
|----------------|----------------|----------------|-------------------| 
|2---2---2-3-2---|2---2---2-3-2---|2---2---2-3-2---|7-7-7-7-7-8--8--8-\| 
|0---0---0-1-0---|0---0---0-1-0---|0---0---0-1-0---|-------------------| 
                  .       
                           
x1 
|----------------|----------------|----------------|----------------| 
|----------------|----------------|----------------|----------------| 
|----------------|----------------|----------------|----------------| 
|----------------|----------------|----------------|----------------| 
|2---2---2-3-2---|--2-3-2--2-3-2--|2---2---2-3-2---|----------------| 
|0---0---0-1-0---|--0-1-0--0-1-0--|0---0---0-1-0---|----------------|                   

Chorus 2 
|----------------------------------| 
|----------------------------------| 
|----------------------------------| 
|9---7-----7---------5-----5-----5-| 
|7---5-----5---7-----3-----3-----3-| 
|------000-----5-000---000---000---| 
       ...       ...   ...   ... 

|----------------------------------| 
|----------------------------------| 
|----------------------------------| 
|9---7-----7---------5-------------| 
|7---5-----5---7-----3-------------| 
|------000-----5-000---00000300300-| 
       ...       ...   ..... .. .. 

|--------------------------------| 
|--------------------------------| 
|--------------------------------| 
|9---7-----7---------5-----------| 
|7---5-----5---7-----3-----3---3-| 
|------000-----5-000---0000-000--| 
       ...       ...   ...  ... 

|----------------------------------| 
|----------------------------------| 
|----------------------------------| 
|9---7-----7---------5-----5-----5-| 
|7---5-----5---7-----3-----3-----3-| 
|------000-----5-000---000---000---| 
       ...       ...   ...   ... 

Pre-Solo 
|----------------|----------------|----------------|------------| 
|----------------|----------------|----------------|------------| 
|----------------|----------------|----------------|------------| 
|----------------|----------------|----------------|------------| 
|2---------3-2---|2---------3-2---|2---------3-2---|5-5-5-3-3-3-| 
|0-0000000-1-0---|0-0000000-1-0---|0-0000000-1-0---|3-3-3-1-1-1-| 
   .......          .......          .......        . . . . . . 

*Only the lead guitar does the slide at the end* 
|----------------|----------------|----------------|------------| 
|----------------|----------------|----------------|------------| 
|----------------|----------------|----------------|----------\-| 
|----------------|----------------|----------------|------------| 
|2---------3-2---|2---------3-2---|2---------3-2---|5-5-5-3-3-3-| 
|0-0000000-1-0---|0-0000000-1-0---|0-0000000-1-0---|3-3-3-1-1-1-| 
   .......          .......          .......        . . . . . . 

SOLO 

|----------------------------------------------7-----5-----5----| 
|14-16-12-12-14-14-10-10-12-12-8-8-10-10-12~-----8-----6--------| 
|--------------------------------------------9-----7-----7---7~-| 
|---------------------------------------------------------------| 
|---------------------------------------------------------------| 
|---------------------------------------------------------------| 

|----------------------------------------------7-----5-------------| 
|14-16-12-12-14-14-10-10-12-12-8-8-10-10-12~-----8----------14-15~-| 
|--------------------------------------------9-----7---7-7---------| 
|------------------------------------------------------------------| 
|------------------------------------------------------------------| 
|------------------------------------------------------------------| 

|-----------------------------------------------------------------19-22b~-| 
|15-------15--------15-------15-----------------------------17-20---------| 
|---14-12----14-12-----14-12----14-12----------12~-15-17-17---------------| 
|-------------------------------------10\12-14----------------------------| 
|-------------------------------------------------------------------------| 
|-------------------------------------------------------------------------| 

SOLO Rhythm 
|----------------|----------------|----------------|----------------| 
|----------------|----------------|----------------|----------------| 
|----------------|----------------|----------------|----------------| 
|2---2---2-3-2---|2---2---2-3-2---|2---2---2-3-2---|----------------| 
|0---0---0-1-0---|0---0---0-1-0---|0---0---0-1-0---|----------------| 
                  . 

|----------------|----------------|----------------|----------------| 
|----------------|----------------|----------------|----------------| 
|----------------|----------------|----------------|----------------| 
|2---2---2-3-2---|2---2---2-3-2---|2---2---2-3-2---|----------------| 
|0---0---0-1-0---|0---0---0-1-0---|0---0---0-1-0---|----------------| 
                  . 

|----------------|----------------|----------------|----------------| 
|----------------|----------------|----------------|----------------| 
|----------------|----------------|----------------|----------------| 
|2---2---2-3-2---|2---2---2-3-2---|2---2---2-3-2---|----------------| 
|0---0---0-1-0---|0---0---0-1-0---|0---0---0-1-0---|----------------| 
                  . 

|----------------|----------------|----------------|----------------------| 
|----------------|----------------|----------------|----------------------| 
|----------------|----------------|----------------|9-9-11-11-12-12-10-10\| 
|----------------|----------------|----------------|----------------------| 
|2---2---2-3-2---|-2-3-2-2-2-3-2--|2---2---2-3-2---|7-7-9--9--10-10-8--8-\| 
|0---0---0-1-0---|-0-1-0-0-0-1-0--|0---0---0-1-0---|----------------------|                    
                         . 
                          
Chorus 3 
x5 
|----------------------------------| 
|----------------------------------| 
|----------------------------------| 
|9---7-----7---------5-----5-----5-| 
|7---5-----5---7-----3-----3-----3-| 
|------000-----5-000---000---000---| 
       ...       ...   ...   ... 

Outro 
|----------------|----------------|----------------|------------| 
|----------------|----------------|----------------|------------| 
|----------------|----------------|----------------|------------| 
|----------------|----------------|----------------|------------| 
|2---------3-2---|2---------3-2---|2---------3-2---|5-5-5-3-3-3-| 
|0-0000000-1-0---|0-0000000-1-0---|0-0000000-1-0---|3-3-3-1-1-1-| 
   .......          .......          .......        . . . . . . 

|----------------|----------------|----------------|------------| 
|----------------|----------------|----------------|------------| 
|----------------|----------------|----------------|------------| 
|----------------|----------------|----------------|------------| 
|2---------3-2---|2---------3-2---|2---------3-2---|5-5-5-2-2-2-| 
|0-0000000-1-0---|0-0000000-1-0---|0-0000000-1-0---|3-3-3-0-0-0-| 
   .......          .......          .......        . . . . . . 
 
		  

See also:

tabs Marilyn Manson - Sweet Dreams (complete) tabs Avenged Sevenfold - Heretic tabs Avenged Sevenfold - Hail To The King tabs Slayer - Seasons In The Abyss tabs Pantera - Walk tabs Avenged Sevenfold - Scream
e-chords

Other versions:

tabs Five Finger Death Punch - Under And Over It
auto scroll beats size up size down change color hide chords drawings
tab show chords e-chords YouTube Clip e-chords hide all tabs e-chords go to top tab

share