Five Finger Death Punch

Lift Me Up

Five Finger Death Punch

tabs Beginner beginner

by  CARLLUZ

save to print version add songbook text version e-mail correct tuner
chordsukulelecavacokeyboardtabbassdrumsharmonicaflute Guitar Pro
close

there isn't a video lesson for this song

chords

Lift Me Up

	  		
Tuning: Drop B (B  F# B E G# C#) 

Intro 
C#|-------------------------------------------------------------------------| 
G#|-------------------------------------------------------------------------| 
E |-------------------------------------------------------------------------| 
B |-------------------------------------------------------------------------| 
F#|--1-0--0-0-000-0-0-0-0-0-0-0-0-0-1-0--0-0-000-0-0-0-0-0-0-0-0-0----------| 
B |--1-0--0-0-000-0-0-0-0-0-0-0-0-0-1-0--0-0-000-0-0-0-0-0-0-0-0-0----------|                
          . . ... . . . . . . . . .      . . ... . . . . . . . . .  

C#|-------------------------------------------------------------------------| 
G#|-------------------------------------------------------------------------| 
E |-------------------------------------------------------------------------| 
B |-----------------0-----------------------------0-------------------------| 
F#|--1-0--0-0-000-0-0--0-0-0-000-0-1-0--0-0-000-0-0--0-0-0-000-0-1-0--------| 
B |--1-0--0-0-000-0-0--0-0-0-000-0-1-0--0-0-000-0-0--0-0-0-000-0-1-0--------| 
          . . ... .    . . . ... .      . . ... .    . . . ... . 

Main Riff x2 
C#|-------------------------------------------------------------------------| 
G#|-------------------------------------------------------------------------| 
E |-------------------------------------------------------------------------| 
B |-----------------------------------------------1-----0-----------0-------| 
F#|---0-0-000-0-1-3-----6---3---6-5-0-0-0-000-0-0-1-0-0-0-0-0-3-2-1-0-------| 
B |---0-0-000-0-----0-0---0---0-----0-0-0-000-0-0-1-0-0-0-0-0-3-2-1-0-------| 
      . . ... .     . .   .   .     . . . ... . .   . .   . . . . .  

Verse x2  (Only play the extra part in parentheses the second time) 
C#|-------------------------------------------------------------------------| 
G#|-------------------------------------------------------------------------| 
E |-------------------------------------------------------------------------| 
B |--0--------0--------0----------7-7---7-7---7-----------------------------| 
F#|--0--------0--------0--------0-5-5-0-5-5-0-5-0---------------------------| 
B |--0-543765-0-543765-0-543765-0-----0-----0---0-(543765)------------------| 
       ......   ......   ...... .     .     .   .       

Chorus x4 
C#|-------------------------------------------------------------------------| 
G#|-------------------------------------------------------------------------| 
E |-------------------------------------------------------------------------| 
B |----7-7---7-7---7-7---7-7---7---7----------------------------------------| 
F#|--0-5-5-0-5-5-0-5-5-0-5-5-0-5-0-5-0-8-----12-10---7-8-----10-8---7-8-----| 
B |--0-----0-----0-----0-----0---0---0-8-0-0-------0-----0-0------0---------| 
     .     .     .     .     .   .   .   . .       .     . .      . 

Now just play this part once before returning to the main riff 
C#|-------------------------------------------------------------------------| 
G#|-------------------------------------------------------------------------| 
E |-------------------------------------------------------------------------| 
B |-------------------------------------------------------------------------| 
F#|--1-0--0-0-000-0-0-0-0-0-0-0-0-0-1-0--0-0-000-0-0-0-0-0-0-0-0-0----------| 
B |--1-0--0-0-000-0-0-0-0-0-0-0-0-0-1-0--0-0-000-0-0-0-0-0-0-0-0-0----------|                
          . . ... . . . . . . . . .      . . ... . . . . . . . . . 

Main Riff x2 
Verse x2 
Chorus x4 

Bridge x2 (I'm not sure how this is played, this is just my best guess) 
C#|-------------------------------------------------------------------------| 
G#|-------------------------------------------------------------------------| 
E |-------------------------------------------------------------------------| 
B |--3/5---8\7-----3/5---8\7-----3/5-3/5---8\7-------2-2-2-5-5-5-8-8-8------| 
F#|--1/3-0-6\5-000-1/3-0-6\5-000-1/3-1/3-0-6\5-0-0-0-0-0-0-3-3-3-6-6-6------| 
B |------0-----000-----0-----000---------0-----0-0-0------------------------| 
         .     ...     .     ...         .     . . . 

Solo 
That I don't have, the rhythm however is just what you play during the Chorus 

C#|-------------------------------------------------------------------------| 
G#|-------------------------------------------------------------------------| 
E |-------------------------------------------------------------------------| 
B |----7-7---7-7---7-7---7-7---7---7----------------------------------------| 
F#|--0-5-5-0-5-5-0-5-5-0-5-5-0-5-0-5-0-8-----12-10---7-8-----10-8---7-8-----| 
B |--0-----0-----0-----0-----0---0---0-8-0-0-------0-----0-0------0---------| 
     .     .     .     .     .   .   .   . .       .     . .      . 

Verse x2 
Chorus x4 

************************************ 

| /   slide up 
| \   slide down 
| h   hammer-on 
| p   pull-off 
| ~   vibrato 
| +   harmonic 
| x   Mute note 
| b   Bend 
| pb  Pre-bend 
| br  Bend release 
| pbr Pre-bend release 
| brb Bend release bend 

************************************ 
		  

Full key step upFull key step up
Half key step upHalf key step up
Half key step downHalf key step down
Full key step downFull key step down
hide glossary

See also:

tabs Marilyn Manson - Sweet Dreams (complete) tabs Avenged Sevenfold - Heretic tabs Avenged Sevenfold - Hail To The King tabs Slayer - Seasons In The Abyss tabs Pantera - Walk tabs Avenged Sevenfold - Scream
e-chords

Other versions:

tabs Guardian - Lift Me Up tabs Five Finger Death Punch - Lift Me Up tabs The O.C. Supertones - Lift Me Up
auto scroll beats size up size down change color hide chords drawings
tab show chords e-chords YouTube Clip e-chords hide all tabs e-chords go to top tab

share