Fionn Regan

List Of Distractions

Fionn Regan

tabs

by  BRUNBLAZKOWSKI

save to print version add songbook text version e-mail correct tuner
chordsukulelecavacokeyboardtabbassdrumsharmonicaflute Guitar Pro
close

there isn't a video lesson for this song

chords

List Of Distractions

	  		 


E|---------------------------------------|-----------------------------------------| 
B|-----0---0---------------3---3---------|-----1------0-------------------0--------| 
G|------------0-----0-------------0------|-------------------2------0-----------0--| 
D|-----0---0-----0---------4---4-----4---|-----2---------2-------2-----------2-----| 
A|---------------------2-----------------|-3-------3---------3---------3-----------| 
E|-3-------------------------------------|-----------------------------------------| 


E|-----3-----------------------------------|-----------------------------------------| 
B|------------0------------3------------3--|-----1------0-------------------------0--| 
G|------------------0-------------0--------|-------------------2------0-----0--------| 
D|-----0---------0---------4---------4-----|-----2---------2-------2-----------2-----| 
A|---------------------2-------2-----------|-3-------3---------3---------3-----------| 
E|-3-------3-------------------------------|-----------------------------------------| 


E|---------------------------------------|-----------------------------------------| 
B|-----0---0---------------3---3---------|-1------0------1-------------1--0--------| 
G|------------0-----0-------------0------|----------------------0---------------0--| 
D|-----0---0-----0---------4---4-----4---|-----2---------2---------2---------2-----| 
A|---------------------2-----------------|-3---------3-------3---------3-----------| 
E|-3-------------------------------------|-----------------------------------------| 


E|-----3-----------------------------------|-----------------------------------------| 
B|------------0------------3------------3--|-----1------0-------------------------0--| 
G|------------------0-------------0--------|-------------------2------0-----0--------| 
D|-----0---------0---------4---------4-----|-----2---------2-------2-----------2-----| 
A|---------------------2-------2-----------|-3-------3---------3---------3-----------| 
E|-3-------3-------------------------------|-----------------------------------------| 


E|-----3-------------------------------|-------------------------------------| 
B|-----------------------3-------------|-1----0----1-------------1--0--------| 
G|------------0-----------------0------|------------------0---------------0--| 
D|-----0---------0-------4---------4---|-----------2---------2---------2-----| 
A|-------------------2-------2---------|-3-------------3---------3-----------| 
E|-3-------3---------------------------|-------------------------------------| 


E|-----3---------------------------------| 
B|------------0------------3-------------| 
G|------------------0-------------0------| 
D|-----0---------0---------4---------4---| 
A|---------------------2-------2---------| 
E|-3-------3-----------------------------| 


E|---------------------------------------|-----3---------------------------------| 
B|-----1------0--------------------------|------------0------------3-------------| 
G|-------------------2------0-----2------|------------------0-------------0------| 
D|-----2---------2-------2-----------2---|-----0---------0---------4---------4---| 
A|-3-------3---------3---------3---------|---------------------2-------2---------| 
E|---------------------------------------|-3-------3-----------------------------| 


E|-------------------------------------|-----3---------------------------------| 
B|-1----0----1-------------1--0--------|------------0------------3-------------| 
G|------------------0---------------0--|------------------0-------------0------| 
D|-----------2---------2---------2-----|-----0---------0---------4---------4---| 
A|-3-------------3---------3-----------|---------------------2-------2---------| 
E|-------------------------------------|-3-------3-----------------------------| 


E|-----------------------------------------| 
B|-----1------0-------------------0--------| 
G|-------------------2------0-----------0--| 
D|-----2---------2-------2-----------2-----| 
A|-3-------3---------3---------3-----------| 
E|-----------------------------------------| 


E|-----3-------------------------------|-----------------------------------------| 
B|------------------0------3-----------|-1------0------1----------------1--------| 
G|------------0-------------------0----|----------------------0---------------0--| 
D|-----0---------0---------4-----------|-----2---------2---------2---------2-----| 
A|---------------------2-------2-------|-3---------3-------3---------3-----------| 
E|-3-------3---------------------------|-----------------------------------------| 


E|-----3---------------------------------|---------------------------------------| 
B|------------0------------0-------------|-----1------0-------------------0------| 
G|------------------0-------------0------|-------------------2------0------------| 
D|-----0---------0---------2---------2---|-----2---------2-------2-----------2---| 
A|---------------------------------------|-3-------3---------3---------3---------| 
E|-3---3---3-----------0-------0---------|---------------------------------------| 


E|--------3-----------------3-----------------3--|----------------3-----------------3--------------| 
B|--------------1-----------------1--------------|----1-----------------1-----------------1--------| 
G|--------------------0-----------------0--------|----------0-----------------0-----------------0--| 
D|-----2-----------2-----------2-----------2-----|-------2-----------2-----------2-----------2-----| 
A|-0---------------------0-----------------------|-0-----------------------0-----------------------| 
E|-----------0-----------------------0-----------|-------------0-----------------------0-----------| 


E|--------------------------------------0--|------------------0--------------------| 
B|-----3------------3------3---------------|-----3-------------------3-------------| 
G|------------4-------------------4--------|------------4-------------------4------| 
D|-----4---------4---------4---------4-----|-----4---------4---------4---------4---| 
A|-2-------------------2-------------------|-2-------------------2-----------------| 
E|---------2-------------------2-----------|---------2-------------------2---------| 


E|------------------0-------------------0--|------------------0----------------------| 
B|-----1-------------------1---------------|-----1-------------------1---------------| 
G|------------0-------------------0--------|------------0-------------------0-----0--| 
D|-----2---------2---------2---------2-----|-----2---------2---------2---------2-----| 
A|-0-------------------0-------------------|-0-------------------0-------------------| 
E|---------0-------------------0-----------|---------0-------------------0-----------| 


E|------------------0-------------------0--|------------------0----------------------| 
B|-----3-------------------3---------------|-----3-------------------3---------------| 
G|------------4-------------------4--------|------------4-------------------4-----4--| 
D|-----4---------4---------4---------4-----|-----4---------4---------4---------4-----| 
A|-2-------------------2-------------------|-2-------------------2-------------------| 
E|---------2-------------------2-----------|---------2-------------------2-----------| 


E|------------------0-------------------0--|------------------0-------------------0--| 
B|-----1-------------------1---------------|-----1-------------------1---------------| 
G|------------0-------------------0--------|------------0-------------------0--------| 
D|-----2---------2---------2---------2-----|-----2---------2---------2---------2-----| 
A|-3-------------------3-------------------|-3-------------------3-------------------| 
E|---------3-------------------3-----------|---------3-------------------3-----------| 


E|------------------0-------------------0--|------------------0--------------------| 
B|-----3-------------------3---------------|-----3-------------------3-------------| 
G|------------4-------------------4--------|------------4-------------------4------| 
D|-----4---------4---------4---------4-----|-----4---------4---------4---------4---| 
A|-2-------------------2-------------------|-2-------------------2-----------------| 
E|---------2-------------------2-----------|---------2-------------------2---------| 


E|------------------0-------------------0--|-----------------------------------| 
B|-----1-------------------1---------------|-----1---------------1----0--------| 
G|------------0-------------------0--------|------------0-----0------------2---| 
D|-----2---------2---------2---------2-----|-----2---------2-------------------| 
A|-0-------------------0-------------------|-0-------------------0-------------| 
E|---------0-------------------0-----------|---------0-------------------------| 


E|-----3---3-------------------------------| 
B|------------0------------3---3--------3--| 
G|------------------0-------------0--------| 
D|-----0---0-----0---------4---4-----4-----| 
A|---------------------2-------------------| 
E|-3---------------------------------------| 


E|---------------------------------------|-3-----------------------------------| 
B|-----1------0--------------------------|-----------------------3-------------| 
G|-------------------2------0-----2------|-0--------------0-------------0------| 
D|-----2---------2-------2-----------2---|-----0-------0---------4---------4---| 
A|-3-------3---------3---------3---------|-------------------2-------2---------| 
E|---------------------------------------|-3-------3---------------------------| 


E|-----------------------------------------| 
B|-----1------0-------------------0--------| 
G|-------------------2------0-----------0--| 
D|-----2---------2-------2-----------2-----| 
A|-3-------3---------3---------3-----------| 
E|-----------------------------------------| 


E|-----3---------------------------------|-----------------------------------------| 
B|------------0------------3-------------|-----1------0-------------------------0--| 
G|------------------0-------------0------|-------------------2------0-----2--------| 
D|-----0---------0---------4---------4---|-----2---------2-------2-----------2-----| 
A|---------------------2-------2---------|-3-------3---------3---------3-----------| 
E|-3-------3-----------------------------|-----------------------------------------| 


E|-----3---------------------------------|---------------------------------------| 
B|------------0------------3---3---------|-1------0------1---1-------------------| 
G|------------------0-------------0------|----------------------0---------0------| 
D|-----0---------0---------4---4-----4---|-----2---------2---2-----2---------2---| 
A|---------------------2-----------------|-3---------3-----------------3---------| 
E|-3-------3-----------------------------|---------------------------------------| 


E|-----3---3-----------------------------|---------------------------------------| 
B|------------0------------3---3---------|-----1------0-------------0------------| 
G|------------------0-------------0------|-------------------2------------0------| 
D|-----0---0-----0---------4---4-----4---|-----2---------2-------2-----------2---| 
A|---------------------2-----------------|-3-------3---------3---------3---------| 
E|-3-------------------------------------|---------------------------------------| 


E|-3---------------------------------------|---------------------------------------| 
B|--------0--0-------------3---3-----------|-----1------0-------------0------------| 
G|-0------------0-----------------0-----0--|-------------------2------------0------| 
D|-----0-----------0-------4---4-----4-----|-----2---------2-------2-----------2---| 
A|---------------------2-------------------|-3-------3---------3---------3---------| 
E|-3---------------------------------------|---------------------------------------| 


E|-3---------------------------------------|---------------------------------------| 
B|--------0--0---------0------------0------|-----1------0--------------------------| 
G|-0------------0------0------0------------|-------------------2------0-----2------| 
D|-----0-----------0-------2-----------2---|-----2---------2-------2-----------2---| 
A|-----------------------------------------|-3-------3---------3---------3---------| 
E|-3---------3---------0---------0---------|---------------------------------------| 


E|--------3------------------3---------------|-----3------------------3--------------------| 
B|-1------------1-------------------1--------|------------1-----------------1-----------0--| 
G|--------------------0-------------------0--|------------------0-----------------0--------| 
D|-----2-----------2---------2---------2-----|-----2---------2-----------2-----------2-----| 
A|-0---------------------0-------------------|-0-------------------0-----------------------| 
E|-----------0-------------------0-----------|---------0-----------------------0-----------| 


E|------------------0-------------------0--|------------------0--------------------| 
B|-----3-------------------3---------------|-----3-------------------3-------------| 
G|------------4-------------------4--------|------------4-------------------4------| 
D|-----4---------4---------4---------4-----|-----4---------4---------4---------4---| 
A|-2-------------------2-------------------|-2-------------------2-----------------| 
E|---------2-------------------2-----------|---------2-------------------2---------| 


E|------------------0-------------------0--|------------------0----------------------| 
B|-----1-------------------1---------------|-----1-------------------1---------------| 
G|------------0-------------------0--------|------------0-------------------0-----0--| 
D|-----2---------2---------2---------2-----|-----2---------2---------2---------2-----| 
A|-0-------------------0-------------------|-0-------------------0-------------------| 
E|---------0-------------------0-----------|---------0-------------------0-----------| 


E|------------------0-------------------0--|------------------0----------------------| 
B|-----3-------------------3---------------|-----3-------------------3---------------| 
G|------------4-------------------4--------|------------4-------------------4-----4--| 
D|-----4---------4---------4---------4-----|-----4---------4---------4---------4-----| 
A|-2-------------------2-------------------|-2-------------------2-------------------| 
E|---------2-------------------2-----------|---------2-------------------2-----------| 


E|------------------0-------------------0--|------------------0-------------------0--| 
B|-----1-------------------1---------------|-----1-------------------1---------------| 
G|------------0-------------------0--------|------------0-------------------0--------| 
D|-----2---------2---------2---------2-----|-----2---------2---------2---------2-----| 
A|-3-------------------3-------------------|-3-------------------3-------------------| 
E|---------3-------------------3-----------|---------3-------------------3-----------| 


E|------------------0-------------------0--|------------------0--------------------| 
B|-----3-------------------3---------------|-----3-------------------3-------------| 
G|------------4-------------------4--------|------------4-------------------4------| 
D|-----4---------4---------4---------4-----|-----4---------4---------4---------4---| 
A|-2-------------------2-------------------|-2-------------------2-----------------| 
E|---------2-------------------2-----------|---------2-------------------2---------| 


E|------------------0-------------------0--|------------------0----------------------| 
B|-----1-------------------1---------------|-----1-------------------1---------------| 
G|------------0-------------------0--------|------------0-------------------0-----0--| 
D|-----2---------2---------2---------2-----|-----2---------2---------2---------2-----| 
A|-0-------------------0-------------------|-0-------------------0-------------------| 
E|---------0-------------------0-----------|---------0-------------------0-----------| 


E|------------------0-------------------0--|------------------0--------------------| 
B|-----3-------------------3---------------|-----3-------------------3-------------| 
G|------------4-------------------4--------|------------4-------------------4------| 
D|-----4---------4---------4---------4-----|-----4---------4---------4---------4---| 
A|-2-------------------2-------------------|-2-------------------2-----------------| 
E|---------2-------------------2-----------|---------2-------------------2---------| 


E|--------------0---------------------0--------|---------------------------------| 
B|-1---------------------1---------------------|-----1---------------------------| 
G|--------0-----------0---------0-----------0--|------------0--------------------| 
D|-----2-----------2---------2-----------2-----|-----2---------2-----------------| 
A|-3---------------------3---------------------|-3-----------------3----2----3---| 
E|-----------3---------------------3-----------|---------3-----------------------| 


E|-------------------------------------|---------------------------------------| 
B|-----0---0-------------3---3---------|-----1------0-------------0------------| 
G|------------0-----------------0------|-------------------2------------0------| 
D|-----0---0-----0-------4---4-----4---|-----2---------2-------2-----------2---| 
A|-------------------2-------2---------|-3-------3---------3---------3---------| 
E|-3-----------------------------------|---------------------------------------| 


E|-----3---3-----------------------------| 
B|------------0------------3-------------| 
G|------------------0-------------0------| 
D|-----0---0-----0---------4---------4---| 
A|---------------------2-------2---------| 
E|-3-------------------------------------| 


E|---------------------------------------|-3------| 
B|-----1------0--------------------------|-0------| 
G|-------------------2------0-----2------|-0------| 
D|-----2---------2-------2-----------2---|-0------| 
A|-3-------3---------3---------3---------|--------| 
E|---------------------------------------|-3------| 
		  

See also:

tabs Fionn Regan - List Of Distractions tabs Fionn Regan - Clara To Calary tabs Fionn Regan - Abacus tabs Fionn Regan - Lines Written In Winter tabs Fionn Regan - Sow Mare Bitch Vixen tabs Fionn Regan - St Anthonys Fire
e-chords

Other versions:

tabs Fionn Regan - List Of Distractions
auto scroll beats size up size down change color hide chords drawings
tab show chords e-chords YouTube Clip e-chords hide all tabs e-chords go to top tab

share