Finch

Letters to you ( acústica )

Finch

tabs

by  DPS_FINCH

save to print version add songbook text version e-mail correct tuner
chordsukulelecavacokeyboardtabbassdrumsharmonicaflute Guitar Pro
close

there isn't a video lesson for this song

chords

Letters to you ( acústica )

	  		Artista: Finch 
Som: Letters to You ( Acústico em Seattle  ) 
 
Intro 1 
|-------------------------------------------| 
|-------------------------------------------| 
|-------------------------------------------| 
|---7-6-9-11-11-----------------------------| 
|-------------------------------------------| 
|-------------------------------------------| 
 
Intro 2 
|-------------------------------------------| 
|-------------------------------------------| 
|-------------------------------------------| 
|---7-6-9-9---------------------------------| 
|-------------------------------------------| 
|-------------------------------------------| 
 
Verse 
|-------------------------------------------| 
|--3---------3----0-------------------------| 
|--2----2----0----2-------------------------| 
|--0----x----0----2-------------------------| < x8 
|--0----4----2----0-------------------------| 
|--0----0----0----0-------------------------| 
 
Pre-Verse 
|-------------------------------------------| 
|-------------------------------------------| 
|--6---7---7---0----------------------------| 
|--x---x---7---7----------------------------| < x8 
|--4---5---5---5----------------------------| 
|-------------------------------------------| 
 
Chorus 
|-------------------------------------------| 
|----------3--------------------------------| 
|--4-------2--------------------------------| 
|--4---7---0---6----------------------------| < x16 
|--2---7---0---6----------------------------| 
|------5---0---4----------------------------| 
 
Fill 
|-------------------------------------------| 
|-------------------------------------------| 
|--9---7------------------------------------| 
|--x---x------------------------------------| < x16 
|--7---5------------------------------------| 
|-------------------------------------------| 
 
Ending Chord 
|-------------------------------------------| 
|-------------------------------------------| 
|---4---------------------------------------| 
|---4---------------------------------------| 
|---2---------------------------------------| 
|-------------------------------------------| 
 
Ordem pra tocar 
------------- 
Intro 1 x11 
Intro 2 x1 
Verse x2 
Pre-Chorus x2 
Chorus x2 
Intro 1 x2 
Verse x2 
Pre-Chorus x2 
Chorus x2 
Intro 1 x6 
Fill x4 
Chorus x2 
Ending Chord x1 
------------- 
		  

See also:

tabs The Beatles - All My Loving tabs The Beatles - And i love her(guitar full version) tabs Queen - Bohemian Rhapsody tabs Eagles - Hotel California tabs Eric Clapton - Cocaine (tab) tabs The Shadows - Apache
e-chords

Other versions:

tabs Finch - Letters to you tabs Finch - Letters to you ( acústica ) tabs Finch - Letters To You acoustic tabs Finch - Letters To You acoustic (ver. 2)
auto scroll beats size up size down change color hide chords drawings
tab show chords e-chords YouTube Clip e-chords hide all tabs e-chords go to top tab

share