Fight Or Flight

You Refuse

Fight Or Flight

tabs

by  CARLLUZ

save to print version add songbook text version e-mail correct tuner
chordsukulelecavacokeyboardtabbassdrumsharmonicaflute Guitar Pro
close

there isn't a video lesson for this song

chords

You Refuse

	  		
Riff 1 
E|-----------------------------| 
B|-----------------------------| 
G|-----------------------------| 
D|-x-x--x--x----x-x--x--x--\\\-| 
A|-x-x--x--x----x-x--x--x--\\\-| 
D|-x-x--x--x----x-x--x--x--\\\-| 

Riff 2 
E|-------------------------------------------------| 
B|-------------------------------------------------| 
G|-------------------------------------------------| 
D|-------------8-----7-----------------8---7---8---| 
A|-8-----7-----------------8-----7-----------------| 
D|---0-0---0-0---0-0---0-0---0-0---0-0---0---0---0-| 
     * *   * *   * *   * *   * *   * *   *   *   * 

E|----------------------------------------------------------------| 
B|----------------------------------------------------------------| 
G|----------------------------------------------------------------| 
D|-----------------8-------7-----------------------8----7----8----| 
A|-8-------7-----------------------8-------7----------------------| 
D|---10-10---10-10---10-10---10-10---10-10---10-10---10---10---10-| 
     *  *    *  *    *  *    *  *    *  *    *  *    *    *    * 

E|-------------------------------------------------| 
B|-------------------------------------------------| 
G|-------------------------------------------------| 
D|-------------------------------------------------| 
A|-------------------------------------------------| 
D|-5-3-0-3-0-3-6-3-0-5-3-0-5-3-0-3-0-3-6-3-0-5-3-0-| 
   * * * * * * * * * * * * 

E|--------------------------------| 
B|--------------------------------| 
G|--------------------------------| 
D|-8--8--8-8-8-8-10--10-10-7--7-7-| 
A|-8--8--8-8-8-8-10--10-10-7--7-7-| 
D|-8--8--8-8-8-8-10--10-10-7--7-7-| 

Play Riff 2 x3   "To be left alone..." 

Fill 1 
E|------------| 
B|------------| 
G|------------| 
D|-0~---------| 
A|-0~---------| 
D|-0~---------| 

Riff 3   "Break down the walls..." 
E|-------------------------------------------------| 
B|-------------------------------------------------| 
G|-------------------------5-5-5-5-5-5-5-5-5-5-5-5-| 
D|-3-3-3-3-3-3-3-3-3-3-3-3-5-5-5-5-5-5-5-5-5-5-5-5-| 
A|-3-3-3-3-3-3-3-3-3-3-3-3-3-3-3-3-3-3-3-3-3-3-3-3-| 
D|-3-3-3-3-3-3-3-3-3-3-3-3-------------------------| 

E|-------------------------------------------| 
B|-------------------------------------------| 
G|-------------------------------------------| 
D|-3-3-3-3-3-3-3-3-3-3-3-3-------------------| 
A|-3-3-3-3-3-3-3-3-3-3-3-3-5--------5--------| 
D|-3-3-3-3-3-3-3-3-3-3-3-3---0-0--0---0-0--0-| 

E|--------------------------------------------------| 
B|--------------------------------------------------| 
G|--------------------------------------------------| 
D|-8-8-8-8-8-8-8-8-8-8-8-8\7-7-7-7-7-7-7-7-7-7-7-7\-| 
A|-8-8-8-8-8-8-8-8-8-8-8-8\7-7-7-7-7-7-7-7-7-7-7-7\-| 
D|-8-8-8-8-8-8-8-8-8-8-8-8\7-7-7-7-7-7-7-7-7-7-7-7\-| 

E|-------------------------------------------------| 
B|-------------------------------------------------| 
G|-------------------------------------------------| 
D|-6-6-6-6-6-6-6-6-6-6-6-6\5-5-5-5-5-5-5-5-5-5-5-5-| 
A|-6-6-6-6-6-6-6-6-6-6-6-6\5-5-5-5-5-5-5-5-5-5-5-5-| 
D|-6-6-6-6-6-6-6-6-6-6-6-6\5-5-5-5-5-5-5-5-5-5-5-5-| 

E|-------------------------------------------------| 
B|-------------------------------------------------| 
G|-------------------------------------------------| 
D|-3-3-3-3-3-3-3-3-3-3-3-3-3-3-3-3-3-3-3-3-3-3-3-3-| 
A|-3-3-3-3-3-3-3-3-3-3-3-3-3-3-3-3-3-3-3-3-3-3-3-3-| 
D|-3-3-3-3-3-3-3-3-3-3-3-3-3-3-3-3-3-3-3-3-3-3-3-3-| 

Play Riff 2 x0.5   (Riff 2 gets repeated from the start again but it is  
                    practically inaudible until the 5-3-0 palm muted part) 
Play Riff 2 x1     (Riff 2 then gets played one more time from the start) 
Play Fill 1 x1 
Play Riff 3 x1   "Break down the walls" 

Riff 4 
E|-------------------------------------------------------------------------| 
B|-------------------------------------------------------------------------| 
G|-------------------------------------10----------------12----------------| 
D|-------------10-13-10----------10-13----13-10----10-13----13-10----10-13-| 
A|-------10-13----------13-10-13----------------13----------------13-------| 
D|-10-13-------------------------------------------------------------------| 

E|-------------------------------------------------------------------------| 
B|-------------------------------------------------------------------------| 
G|-------------------------------------10----------------12----------------| 
D|-------------10-13-10----------10-13----13-10----10-13----13-10----10----| 
A|-------10-13----------13-10-13----------------13----------------13----13-| 
D|-10-13-------------------------------------------------------------------| 



Enjoy!! 
		  

See also:

tabs Deep Purple - Deep Purple - Smoke On The Water tabs Ira! - Dias de Luta (Intro - Acustico Mtv) tabs Deep Purple - Smoke on The Water (ver.3) tabs Deep Purple - Into The Fire tabs Deep Purple - When a Blind man cries tabs Deep Purple - Highway Star
e-chords

Other versions:

tabs Fight Or Flight - You Refuse
auto scroll beats size up size down change color hide chords drawings
tab show chords e-chords YouTube Clip e-chords hide all tabs e-chords go to top tab

share