Field Medic

Ily Most

Field Medic

tabs

by  LUCICAMARGO

save to print version add songbook text version e-mail correct tuner
chordsukulelecavacokeyboardtabbassdrumsharmonicaflute Guitar Pro
close

there isn't a video lesson for this song

chords

Ily Most

	  		Tuning: DADGBd (Double drop D Tuning) 

Intro/Verse 
d|----------------------------------------|---------------------------------------------| 
B|----------------------------------------|---------------------------------------------| 
G|-9--------------------------------------|-9----------------------0--------------------| 
D|---12-11h12------------------11---------|---12-11h12----------------------0-----------| 
A|------------9------12---10--------12----|------------9------7---------0h2-------------| 
D|-0----0-----0----0----0----0----0-------|-0----0-----0----0---0----0----0---0---------| 


Chorus 
d|---0---0---0---0---0---0---0---0-|---0---0---0---0---0---0---0---0-| 
B|-10--10--10--10--10--10--10--10--|-8---8---8---8---7---7---7---7---| 
G|---------------------------------|---------------------------------| 
D|---------------------------------|---------------------------------| 
A|---------------------------------|---------------------------------| 
D|-11--11--11--11--11--11--11--11--|-9---9---9---9---7---7---7---7---| 

d|---0---0---0---0---0---0---0---0-|---0---0---0---0---0---0---0---0-| 
B|-3---3---3---3---5---5---5---5---|-2---2---2---2---2---2---2---2---| 
G|---------------------------------|---------------------------------| 
D|---------------------------------|---------------------------------| 
A|---------------------------------|---------------------------------| 
D|-4---4---4---4---5---5---5---5---|-2---2---2---2---2---2---2---2---| 


************************************ 

| h  Hammer-on 

************************************ 
		  

Full key step upFull key step up
Half key step upHalf key step up
Half key step downHalf key step down
Full key step downFull key step down
hide glossary

See also:

tabs Deep Purple - Burn tabs Deep Purple - Lazy tabs Deep Purple - Deep Purple - Smoke On The Water tabs Deep Purple - Stormbringer tabs Deep Purple - Demon's Eye tabs Albert Hammond Jr - Holiday
e-chords

Other versions:

tabs Field Medic - Ily Most
auto scroll beats size up size down change color hide chords drawings
tab show chords e-chords YouTube Clip e-chords hide all tabs e-chords go to top tab

share