Feeder

Helium (ver. 1)

Feeder

tabs

save to print version add songbook text version e-mail correct tuner
chordsukulelecavacokeyboardtabbassdrumsharmonicaflute Guitar Pro
close

there isn't a video lesson for this song

chords

Helium (ver. 1)

	  		Feeder ? Helium 
 
Author Tom Gosden aka evo7 
 
Notes - 
(b)means bend note 
< means slide  
 
Intro and Verse 
e------------------------ 
b------------------------ 
g---88888888------------- 
d---88888888---666---9999 
a---66666666---666---9999 
e--------------444---7777	x7 
 
e---------------- 
b---------------- 
g---66666---99999 
d---66666---99999 
a---44444---77777 
e---------------- 
 
e------------------------ 
b------------------------ 
g---88888888------------- 
d---88888888---666---9999 
a---66666666---666---9999 
e--------------444---7777	x3 
 
e---------------- 
b---------------- 
g---66666---99999 
d---66666---99999 
a---44444---77777 
e---------------- 
 
Chorus 
e-------------------------------- 
b-------------------------------- 
g---44444------------------------ 
d---44444---44444---77777---22222 
a---22222---44444---77777---22222 
e-----------22222---55555---00000	x2 
 
Repeat Verse 
 
Chorus x4 
 
Bridge 
e------------------9--12--11--12--11--12 
b--------------11----------------------- 
g---11(b)--11--------------------------- 
 
e------------------9--12--11<14 
b--------------11-------------- 
g---11(b)--11------------------ 
 
e------------------9--12--11--12?11--12--11(b)--12(b)--14(b) 
b--------------11------------------------------------------- 
g---11(b)--11----------------------------------------------- 
 
Verse (play last part of the verse twice) 
 
Chorus 
 

		  

See also:

tabs Feeder - Sweet (ver. 2) tabs Feeder - Insomnia tabs Feeder - Godzilla (ver. 2) tabs Feeder - Just A Day tabs Feeder - Piece By Piece (ver. 2) tabs Feeder - Summers Gone
e-chords

Other versions:

tabs Feeder - Helium (ver. 1) tabs Feeder - Helium (ver. 2) tabs The Weirdos - Helium Bar
auto scroll beats size up size down change color hide chords drawings
tab show chords e-chords YouTube Clip e-chords hide all tabs e-chords go to top tab

share