Fear

We Got To Get Out Of This Place

Fear

tabs

by  HEBEALMEIDA

save to print version add songbook text version e-mail correct tuner
chordsukulelecavacokeyboardtabbassdrumsharmonicaflute Guitar Pro
close

there isn't a video lesson for this song

chords

We Got To Get Out Of This Place

	  		Intro 

e|---------------------------------------------------------------------------| 
B|---------------------------------------------------------------------------| 
G|---------------------------------------------------------------------------| 
D|--------3--5--3------------------------------------------------------------| 
A|----2-2---------4----------------------------------------------------------| 
E|--3------------------------------------------------------------------------| 

Verse 

e|---------------------------------------------------------------------------| 
B|---------------------------------------------------------------------------| 
G|---------------------------------------------------------------------------| 
D|--------3--5--3------------------------------------------------------------| 
A|----2-2---------4----------------------------------------------------------| 
E|--3------------------------------------------------------------------------| 

e|---------------------------------------------------------------------------| 
B|---------------------------------------------------------------------------| 
G|---------------------------------------------------------------------------| 
D|--------3--5--3----------2-3-----------------------------------------------| 
A|----2-2---------4---2-2--2-3-----------------------------------------------| 
E|--3---------------3------0-1-----------------------------------------------| 


Chorus 

e|---------------------------------------------------------------------------| 
B|---------------------------------------------------------------------------| 
G|--4-4444444----------------------------------------------------------------| 
D|--4-4444444--3-3333333--5-5555555--9~--------------------------------------| 
A|--2-2222222--3-3333333--5-5555555--9~--------------------------------------| 
E|-------------1-1111111--3-3333333--7~--------------------------------------| 

Throw in a random bend or two after the last B chord. A trintone using B on  
the second fret could also be used instead of the B chord at the end: 
e|---------------------------------------------------------------------------| 
B|---------------------------------------------------------------------------| 
G|--4-4444444------------------------4~--------------------------------------| 
D|--4-4444444--3-3333333--5-5555555--3~--------------------------------------| 
A|--2-2222222--3-3333333--5-5555555--2~--------------------------------------| 
E|-------------1-1111111--3-3333333------------------------------------------| 

Post Chorus 

e|---------------------------------------------------------------------------| 
B|---------------------------------------------------------------------------| 
G|-------------------------3b4b----------------------------------------------| 
D|--------3--5--3------------------------------------------------------------| 
A|----2-2---------2----------------------------------------------------------| 
E|--3---------------3--------------------------------------------------------| 

e|---------------------------------------------------------------------------| 
B|---------------------------------------------------------------------------| 
G|-------------------------5b6b----------------------------------------------| 
D|--------3--5--3------------------------------------------------------------| 
A|----2-2---------4----------------------------------------------------------| 
E|--3---------------3--------------------------------------------------------| 

e|---------------------------------------------------------------------------| 
B|---------------------------------------------------------------------------| 
G|-------------------------7b8b----------------------------------------------| 
D|--------3--5--3------------------------------------------------------------| 
A|----2-2---------4----------------------------------------------------------| 
E|--3---------------3--------------------------------------------------------| 

e|---------------------------------------------------------------------------| 
B|---------------------------------------------------------------------------| 
G|---------------------------------------------------------------------------| 
D|--------3--5--3------------------------------------------------------------| 
A|----2-2---------4----------------------------------------------------------| 
E|--3---------------3--------------------------------------------------------| 

Random bends again - or find something that matches the song. 
I just go with what sounds right, but don't always use the same pattern. 

Outro 

e|---------------------------------------------------------------------------| 
B|---------------------------------------------------------------------------| 
G|---------------------------------------------------------------------------| 
D|--------3--5--3----(x3)--5-------------------------------------------------| 
A|----2-2---------4--------5-------------------------------------------------| 
E|--3----------------------3-------------------------------------------------| 

************************************ 

| b   Bend 
| ~   Vibrato 

************************************ 
		  

Full key step upFull key step up
Half key step upHalf key step up
Half key step downHalf key step down
Full key step downFull key step down
hide glossary

See also:

tabs Blink 182 - Carousel tabs Blink 182 - Stay Together 4 the Kids tabs Green Day - Jesus of Suburbia tabs Goo Goo Dolls - Iris (Acoustic) tabs Blink 182 - What´s My Age Again ? tabs Green Day - Wake Me Up When September Ends
e-chords

Other versions:

tabs Fear - We Got To Get Out Of This Place
auto scroll beats size up size down change color hide chords drawings
tab show chords e-chords YouTube Clip e-chords hide all tabs e-chords go to top tab

share