Fauve

Lettre Zo

Fauve

tabs

by  LINEKERS

save to print version add songbook text version e-mail correct tuner
chordsukulelecavacokeyboardtabbassdrumsharmonicaflute Guitar Pro
close

there isn't a video lesson for this song

chords

Lettre Zo

	  		
Intro 

e|----------------------------- --------------|  Repeat x3 
B|----3---------------3-------- --------------| 
G|----------------------------- -----4-----6--| 
D|------------0--------------0- --------------| 
A|-2-----2---------2-----2----- --------------| 
E|----------------------------- --3-----5-----| 

e|----2------- ----3------- ------------------------| 
B|------------ ----------0- ----2-----------2-------| 
G|----------2- ------------ ----------2-----------2-| 
D|-0-----0---- -2-----2---- ------------------------| 
A|------------ ------------ -0-----0-----0-----0----| 
E|------------ ------------ ------------------------| 


Verse 

e|----------------------------- --------------|  Repeat x3 
B|----3---------------3-------- --------------| 
G|----------------------------- -----4-----6--| 
D|------------0--------------0- --------------| 
A|-2-----2---------2-----2----- --------------| 
E|----------------------------- --3-----5-----| 

e|----2------- ----3------- ------------------------| 
B|------------ ----------0- ----2-----------2-------| 
G|----------2- ------------ ----------2-----------2-| 
D|-0-----0---- -2-----2---- ------------------------| 
A|------------ ------------ -0-----0-----0-----0----| 
E|------------ ------------ ------------------------| 

Chorus x3 

e|----2-----2- ----2-----2- ------------ ------------| 
B|------------ ------------ ------------ ---3-----3--| 
G|------------ ------------ ----4-----4- ------------| 
D|-0-----0---- ------------ ------------ ------------| 
A|------------ ------------ ------------ ------------| 
E|------------ -2-----2---- -3-----3---- -2----2-----| 

e|----2-----2- ----2-----2- ------------------------| 
B|------------ ------------ ------------------------| 
G|------------ ------------ ----4-----4-----4-----4-| 
D|-0-----0---- ------------ ------------------------| 
A|------------ ------------ ------------------------| 
E|------------ -2-----2---- -3-----3-----3-----3----| 
		  

See also:

tabs Ira! - Poo de Sensibilidade (Solo - Acustico Mtv) tabs Deep Purple - Smoke On The Water tabs Deep Purple - Smoke on the water (intro) tabs Ira! - Eu Quero Sempre Mais (Com Pitty, intro) tabs Deep Purple - Smoke on the Water (ver. 2) tabs Deep Purple - Knocking At Your Back Door
e-chords

Other versions:

tabs Fauve - Lettre Zo
auto scroll beats size up size down change color hide chords drawings
tab show chords e-chords YouTube Clip e-chords hide all tabs e-chords go to top tab

share