Father John Misty

The Night Josh Tillman Came To Our Apartment

Father John Misty

tabs

by  SABRJOAO

save to print version add songbook text version e-mail correct tuner
chordsukulelecavacokeyboardtabbassdrumsharmonicaflute Guitar Pro
close

there isn't a video lesson for this song

chords

The Night Josh Tillman Came To Our Apartment

	  		INTERLUDES 
        F                Bb/F             F                Bb/F 
 :-----|--5-----5-------|--6-----6-------|.-5-----5-----.-|.---------------| 
 :-----|.---6-----6---.-|.---6-----7-.-.-|6---6-----6-.-6-|8---------------| 
 :-.-.-|5-----5-----.-5-|7-----7-----5-7-|------5-----7---|----------------| 
 :-7-8-|------------7---|----------------|----------------|----------------| 
 :-----|----------------|----------------|----------------|----------------| 
 :-----|----------------|----------------|----------------|----------------| 


VERSES 
  F     ( Fmaj7    F6      F )      Bb      F/A      Gm               Gm 
 |--5-----.---5---|--5---5-----5---|--6-------5-----|---------5------|--------5-------| 
 |----6---5-------|.---6---.-----6-|----6-------6---|---8----------8-|--8-------------| 
 |5-----5-------5-|7-------5-------|7-----7-5-----5-|-------7----7---|------7---------| 
 |----------------|----------------|----------------|----------------|----------------| 
 |----------------|----------------|----------------|----------------|----------------| 
 |----------------|----------------|----------------|----------------|----------------| 

  Bb      F/A      Gm               Gm 
 |--6-------5-----|---------5------|--------5-------| 
 |----6-------6---|---8----------8-|--8-------------| 
 |7-----7-5-----5-|-------7----7---|------7---------| 
 |----------------|----------------|----------------| 
 |----------------|----------------|----------------| 
 |----------------|----------------|----------------| 

  Adim7            Bb      F/A      Gm               Gm 
 |5-----5-----5-8-|--6-------5-----|---------5------|--------5-------| 
 |----7-----7-----|----6-------6---|---8----------8-|--8-------8-----| 
 |--8-------------|7-----7-5-----5-|-------7----7---|------7-----7-7/| 
 |----------------|----------------|----------------|----------------| 
 |----------------|----------------|----------------|----------------| 
 |----------------|----------------|----------------|----------------| 

  C7               Dm               Dm 
 |--8-------12----|--------10------|------10--------| 
 |----8-----------|--10----------10|----10----------| 
 |9-----9/12------|----10------10--|--10----------7/| 
 |----------------|12----12--------|----------------| 
 |----------------|----------------|----------------| 
 |----------------|----------------|----------------| 

  C7               Dm       A7       Dm               Dm 
 |--8-------12----|-----------------|--------10------|------10----: 
 |----8-----------|--10-------10----|--10----------10|----10------: 
 |9-----9/12------|----10-------12--|----10------10--|--10--------: 
 |----------------|12----12-11----11|12----12--------|------------: 
 |----------------|-----------------|----------------|------------: 
 |----------------|-----------------|----------------|------------: 


(2.VERSE-variation: the last line, with that extra bar of Dm before the A7) 
  C7               Dm               Dm       A7       Dm               Dm 
 |--8-------12----|--------10----10|-----------------|--10----12----10|--10----------: 
 |----8-----------|--10--10--10----|--10-------14----|----10----10----|----10--------: 
 |9-----9/12------|----10------10--|----10-------12--|------------10--|------10------: 
 |----------------|12--------------|------12/14----14|------12--------|--------------: 
 |----------------|----------------|-----------------|----------------|--------------: 
 |----------------|----------------|-----------------|----------------|--------------: 


BRIDGE 
     Bb               C7               Gm               Gm 
 :--|--6-----6-----6-|--8-----8-------|---------5------|--------5-------| 
 :--|----6-----6-----|----8-----8-----|---8----------8-|--8-------------| 
 :5/|7-----7-----7---|9-----9-----9---|-------7----7---|------7-------5/| 
 :--|----------------|----------------|----------------|----------------| 
 :--|----------------|----------------|----------------|----------------| 
 :--|----------------|----------------|----------------|----------------| 

  Bb               C7               Gm               Gm      Bb 
 |--6-----6-----6-|--8-----8-------|---------5------|----------6-----| 
 |----6-----6-----|----8-----8-----|---8----------8-|--8---------6---| 
 |7-----7-----7---|9-----9-----9---|-------7----7---|------5/7-----7-| 
 |----------------|----------------|----------------|----------------| 
 |----------------|----------------|----------------|----------------| 
 |----------------|----------------|----------------|----------------| 

  Gm               Gm     Bb        Gm               C7 
 |---------5------|----------6-----|--------5-------|--8-------12: 
 |---8----------8-|--8---------6---|--8-------8-----|----8-------: 
 |-------7----7---|------5/7-----7-|------7-----7-7/|9-----9/12--: 
 |----------------|----------------|----------------|------------: 
 |----------------|----------------|----------------|------------: 
 |----------------|----------------|----------------|------------: 


ENDING 
  Bb               Bb               A7               Bb 
 |--6-----6-------|--10----10------|--9-------12----|----------------: 
 |----6-----6-----|----11----11----|----8-------10--|----------------: 
 |7-----7-----7---|10----10----10--|9-----9/12------|----------------: 
 |----------------|----------------|----------------|----------------: 
 |----------------|----------------|----------------|----------------: 
 |----------------|----------------|----------------|----------------: 

 
		  

Full key step upFull key step up
Half key step upHalf key step up
Half key step downHalf key step down
Full key step downFull key step down
hide glossary

See also:

tabs David Aguilar - Eco tabs Misc Computer Games - The Witcher 3 Ost - Lullaby Of Woe A Night To Remember Song (acoustic) tabs Misc Computer Games - Damned Black Ops Zombies Menu Music tabs Misc Computer Games - Undertale - His Theme tabs Misc Television - Gravity Falls Theme tabs Misc Computer Games - Far Cry 5 - We Will Rise Again
e-chords

Other versions:

tabs Father John Misty - The Night Josh Tillman Came To Our Apartment
auto scroll beats size up size down change color hide chords drawings
tab show chords e-chords YouTube Clip e-chords hide all tabs e-chords go to top tab

share