Father John Misty

Nohting Good Ever Happens At The Goddamn Thirsty Crow

Father John Misty

tabs

by  RENEJUNIOR

save to print version add songbook text version e-mail correct tuner
chordsukulelecavacokeyboardtabbassdrumsharmonicaflute Guitar Pro
close

there isn't a video lesson for this song

chords

Nohting Good Ever Happens At The Goddamn Thirsty Crow

	  		

INTERLUDE 




VERSE 

    " On the road again 
      For months at a time 
      Doesn't take half that long for men about town to forget what's mine 
      Now my genius can drink in silence 
      She's gotta listen to your tired-ass lies 
      I know it's hard to believe a good-hearted woman 
      Could have a body that make your daddy cry 
      Why the long face? 
      Jerk off, your chance has been taken 
      Good one 
      You may think like an animal 
      You try that cat-and-mouse shit you'll get bitten 
      Keep moving 




INTERLUDE 




ENDING-INTERLUDE: 
-The upper guitar is another acoustic guitar. 
-The lower guitar is an electric guitar with overdrive. 

(F)           C                        C 
:------------|------------------------|------------------------| 
:------------|------------------------|------------------------| 
:------------|------------5-------5---|------------5---7-5-----| 
:------------|----------5-----------7-|----------5-------------| 
:------------|--------8---------------|5-------8---------------| 
:------------|------------------------|------------------------| 
: 
:3-----3-----|2-----------------------|------------2-----2-----| 
:3-----3-----|3-----------------------|------------3-----3-----| 
:0-----0-----|2-----------------------|------------2-----2-----| 
:0-----0-----|0-----------------------|------------0-----0-----| 
:x-----x-----|0-----------------------|------------0-----0-----| 
:3-----3-----|------------------------|------------------------| 


 G13                      G13 
|------------------------|------------------------| 
|------------------------|------------------------| 
|------------------------|------------------------| 
|------------5-------5---|------------5---7-5-----| 
|----------5-----------7-|----------5-------------| 
|--------8---------------|5-------8---------------| 
| 
|0-----------------------|------------0-----0-----| 
|2-----------------------|------------2-----2-----| 
|0-----------------------|------------0-----0-----| 
|2-----------------------|------------2-----2-----| 
|0-----------------------|------------0-----0-----| 
|------------------------|------------------------| 


 C9                       C9                       F 
|------------------------|------------------------|------------: 
|------------------------|------------------------|------------: 
|------------5-------5---|------------5---7-5-----|------------: 
|----------5-----------7-|----------5-----------7-|5-----------: 
|--------8---------------|5-------8---------------|------------: 
|------------------------|------------------------|------------: 
| 
|2-----------------------|------------2-----2-----|1-----------: 
|1-----------------------|------------1-----1-----|0-----------: 
|2-----------------------|------------2-----2-----|0-----------:  ring 
|0-----------------------|------------0-----0-----|0-----------:  out 
|0-----------------------|------------0-----0-----|x-----------: 
|------------------------|------------------------|3-----------: 




------------------------------------------------------------------------------ 
 Jon Sebastian Frederiksen ?? 20th /February /15 
 Just mail me at [email protected] with questions, comments and corrections! 
		  

Full key step upFull key step up
Half key step upHalf key step up
Half key step downHalf key step down
Full key step downFull key step down
hide glossary

See also:

tabs David Aguilar - Eco tabs Misc Computer Games - The Witcher 3 Ost - Lullaby Of Woe A Night To Remember Song (acoustic) tabs Misc Computer Games - Damned Black Ops Zombies Menu Music tabs Misc Computer Games - Undertale - His Theme tabs Misc Television - Gravity Falls Theme tabs Misc Computer Games - Far Cry 5 - We Will Rise Again
e-chords

Other versions:

tabs Father John Misty - Nohting Good Ever Happens At The Goddamn Thirsty Crow
auto scroll beats size up size down change color hide chords drawings
tab show chords e-chords YouTube Clip e-chords hide all tabs e-chords go to top tab

share