Falkenbach

The Ardent Awaited Land

Falkenbach

tabs

by  MENBEARPIG

save to print version add songbook text version e-mail correct tuner
chordsukulelecavacokeyboardtabbassdrumsharmonicaflute Guitar Pro
close

there isn't a video lesson for this song

chords

The Ardent Awaited Land

	  		#----------------------------------PLEASE NOTE---------------------------------# 
#This file is the author's own work and represents their interpretation of the # 
#song. You may only use this file for private study, scholarship, or research. # 
#------------------------------------------------------------------------------# 

Copyright (c)  Napalm Records (2002) 

Transcribed By: Stefan Bestler 
Email: [email protected] 

.  - palm mute           /  - slide up to 
\  - slide down to       ~  - vibrato 
h  - hammer on           b  - Bend 
p  - pull off            Suffixes for bend 
t  - tap                 f  - full bend    h - half bend 
ph - pinched harmonic    q  - quarter bend t - tap bend 
*  - see comment         ^  - Hold bend    r release bend 
x  - Stuccatto           ~  - vibrato bend 
,  - slight palm mute    () - ghost note, sustained note 
"  - tremolo note        <> - Trill 

Tunning E A D G B E 
The whole song is played with acusticguitar 
Riff1: 

E|-2----this cord plays the first guitar the whole song---------------| 
B|-3-------------------------------|----------------------------------| 
G|-4-------------------------------|----------------------------------|  
D|-4-------------------------------|----------------------------------| 
A|-2-------------------------------|----------------------------------| 
E|------------------------------ ---|----------------------------------| 


2nd guitar: 

e|--------------------------------------------------| 
B|-------------------------------------------------| 
G|-------------------------------------------------| 
D|---------    7-0-7-0-8-0-8-0-------------| 
A|-2-2-2-2-------------------------------------| 
E|-------------------------------------------------| 




melody 2nd guitar (without variety): 

e|----------------------------------------------------------------------| 
B|------------------------------------------------------7--------------| 
G|-4------4-6-7--7-6-4-------------------------------------------| 
D|------4----------------------4-s7?4s7h8-------------------| 
A|----------------------------------------------------------------------| 
E|---------------------------------------------------------------------- 
		  

Full key step upFull key step up
Half key step upHalf key step up
Half key step downHalf key step down
Full key step downFull key step down
hide glossary

See also:

tabs EKV - Krug tabs Der W - Bitte Töte Mich tabs Die Toten Hosen - Bser Wolf Solo tabs Rammstein - Rammlied tabs Eisbrecher - Eisbrecher tabs ATB - The Summer
e-chords

Other versions:

tabs Falkenbach - The Ardent Awaited Land
auto scroll beats size up size down change color hide chords drawings
tab show chords e-chords YouTube Clip e-chords hide all tabs e-chords go to top tab

share