Fairy Tail

Theme Slow

Fairy Tail

tabs Beginner beginner

by  ANDRSOUZA

save to print version add songbook text version e-mail correct tuner
chordsukulelecavacokeyboardtabbassdrumsharmonicaflute Guitar Pro
close

there isn't a video lesson for this song

chords

Theme Slow

	  		 
E|--0---7---7---5-----3--2--0--2--0---7---10---7----5-----2h3--2--0--0----2~3-2-------0---0--7--| 
B|-----------------3-----------------------------8-----3----------------0------3----------------| 
G|-------------------------------------------------------------------0-----------2--------0-----| 
D|--------------------0-----------------------------0---------------------0--------0----2-------| Lento 
A|--------------------------3-------------10----------------------3-----------------------------| 
E|--0-------3---------------------0---------------------------------------------------0---------| 
 

 
E|--7---5-----3---3--2---0--0--2-----0-----7--10-----7----5----3--2--0---0-2-----|| 
B|---------3-----------------------3-------------------8-----3----------------3--|| 
G|-------------------------------------------------------------------------------|| 
D|------------0------0---------0------------------9-------0----------------0-----|| Lento 
A|-----------------------3--------------2-----10---------------------3-----------|| 
E|--3--------------------------------0-------------------------------------------|| 
 


 
E|--0-2-0-----------0----0-2-0------------3-2--0-2-0-----------0---3-2-0-2-0-------0---2h3-2--|| 
B|--------3-0---0-3---3--------3-0----0-3------------3-0---0-3---3-----------3-0-3---3--------|| 
G|------------2--------------------2---------------------2------------------------------------|| 
D|---------------------------------------------0-------------------------------0--------------|| Lento 
A|-----------------------------------------------------------------3-----3--------------------|| 
E|--0---------0---0------3---------0---------------------0------------------------------------|| 
 



 
E|-0---0-2--2h3-2-0----------7--5--3--3h5--7-5h7p5--3-2--0---0-0-2~3-2-------0---0-2-2h3-2-0---------7| 
B|------------------3-----3----------------------------------0---------3---------------------3-----3--| 
G|-----0----------------0----------------------------------0-------------2-------0---------------0----| Médio 
D|---2----------------0---------------0------0-------------------0---------0---2---------------0------| 
A|-------------------------------------------------------3--------------------------------------------| 
E|-0----------------3--------------------------------------------------------0---------------3--------| 
 

 
E|-5--3--3h5--7-5h7p5--3-2--0---0-3-2--------0---0-2-2h3-2-0------7h10--7\5--|| 
B|------------------------------0------3---------------------3-0-------------|| 
G|----------------------------0----------2-------0---------------------------|| 
D|-------0------0-------------------0----------2-----------------------------|| 
A|--------------------------3------------------------------------------------|| Médio 
E|-------------------------------------------0---------------3---------------|| 
 

 
E|-5--3--3h5--7-5h7p5--3-2--0---0-0-2~3-2-------0---0-2-2h3-2-0------7h10--7\5--|| 
B|------------------------------0---------3---------------------3-0-------------|| 
G|----------------------------0-------------2-------0---------------------------|| x2 Médio 
D|-------0------0-------------------0---------0---2-----------------------------|| 
A|--------------------------3---------------------------------------------------|| 
E|----------------------------------------------0---------------3---------------|| 
 

 
E|-5--3--3h5--7-5h7p5--3-2--0---0-0-2~3-2------|| 
B|------------------------------0---------3----|| Médio  e lentinho no final antes de começar a ending. 
G|----------------------------0-------------2--|| 
D|-------0------0-------------------0----------|| 
A|--------------------------3------------------|| 
E|---------------------------------------------|| 
 

E|--0-2-0-----------0----0-2-0------------3-2--0-2-0-----------0---3-2-0-2-0-------0---2h3-2--|| 
B|--------3-0---0-3---3--------3-0----0-3------------3-0---0-3---3-----------3-0-3---3--------|| 
G|------------2--------------------2---------------------2------------------------------------||2x 
D|---------------------------------------------0-------------------------------0--------------||Vel: Méd/Rapid 
A|-----------------------------------------------------------------3-----3--------------------|| 
E|--0---------0---0------3---------0---------------------0------------------------------------|| 
		  

See also:

tabs X Japan - Tears tabs Pillows - One Life tabs Mymp - Especially For You tabs Asian Kung-fu Generation - Riraito tabs Yousei Teikoku - Kuusou Mesorogiwi tabs Abingdon Boys School - Kimi No Uta
e-chords

Other versions:

tabs Fairy Tail - Theme Slow
auto scroll beats size up size down change color hide chords drawings
tab show chords e-chords YouTube Clip e-chords hide all tabs e-chords go to top tab

share