Face To Face

home > Face To Face

I won´t lie down Tab

Face To Face

Difficulty: ExpertExpert

tuner correct add songbook print version text version save to e-mail
chordsukulelecavacokeyboardtabbassdrumsharmonicsflute Guitar Pro
chords

I won´t lie down

  		 
Intro: F - C - C# - D# 
A segunda faz essas oitavas: 
e|-----------------------| 
B|-----------------------| 
G|-----10-----13--12-----| 
D|------x-----x---x------| 
A|------8-----11--10-----| 
E|-----------------------| 
 
 
Canto: F - C - C# - D# 
Don´t seen the body see a him.. 
 
 
Ponte: C# - F - C 
Eneveryone, can´t be right 
Foreveryone, well the side... 
 
 
Refrão: G# - Bb - F - C# 
Another breath on the breakside pray... 
 
A segunda guita faz umas oitavas assim: 
e|-------------------------| 
B|-------------------------| 
G|------8------13--12--10--| 
D|------x------x---x---x---| 
A|------6------11--10--8---| 
E|-------------------------| 
 
 
 
Intro: F - C - C# - D# 
 
 
Canto: F - C - C# - D# 
Now true you moust to see a him... 
 
 
Ponte: C# - F - C 
Eneveryone, can´t be right 
Foreveryone, well the side... 
 
 
Refrão: G# - Bb - F - C# 
Another breath on the breakside pray... 
 
 
Caída: F}( agudo ) - D# - C# - C 
As duas guitas fazem um solinho, é fácil, mais tirem aê,é segredo de guitarrista,hehehe... 
 
 
Ponte: C# - F - C 
Eneveryone, can´t be right 
Foreveryone, well the side... 
 
 
 
Refrão: G# - Bb - F - C# 
Another breath on the breakside pray... 
 
A segunda guita faz umas oitavas assim: 
e|------------------------------| 
B|------------------------------| 
G|------8------13--12--10-----8-| 
D|------x------x---x---x------x-| 
A|------6------11--10--8------6-| 
E|------------------------------| 
 
_______________________________________________________ 
Contribuição: Fillippy([email protected]) 
	  

Full key step upFull key step up
Half key step upHalf key step up
Half key step downHalf key step down
Full key step downFull key step down
Search Paypal
auto scroll beats size up size down change color hide chords drawings
tab show chords e-chords YouTube Clip e-chords hide all tabs e-chords go to top tab