Face To Face

home > Face To Face

Disconnected (ver. 2) Tab

Face To Face

Difficulty: EasyEasy

tuner correct add songbook print version text version save to e-mail
chordsukulelecavacokeyboardtabbassdrumsharmonicsflute Guitar Pro
chords

Disconnected (ver. 2)

  		Tab By Gregguitarman 
 
pm...=paum mute 
 
Intro 
 
e------------------------------ 
b------------------------------ 
g------------------------------ 
d-2-4-4-4---------------------- 
a-2-4-4-4---------------------- 
e-0-2-6-2---------------------- 
 cont intro 
(play really fast) 
e------------------------------ 
b------------------------------ 
g------------------------------ 
d-222222-444444-444444-444444-- 
a-222222-444444-444444-444444-- 
e-000000-222222-666666-222222-- 
Verse 
 
e------------------------------ 
b------------------------------ 
g--44-44-44-44-44-44-3--------- 
d--44-44-44-44-44-44-3-4-------   x7 
a--22-22-22-22-22-22-1-4------- 
e----------------------2------- 
pm .. .. .. .. .. .. 
 
Chorus 
e------------------------------ 
b------------------------------ 
g------------------------------ 
d-2-4-4-4----------------------  x10 
a-2-4-4-4---------------------- 
e-0-2-6-2---------------------- 
 
Verse 
e------------------------------ 
b------------------------------ 
g--44-44-44-44-44-44-3--------- 
d--44-44-44-44-44-44-3-4-------   x7 
a--22-22-22-22-22-22-1-4------- 
e----------------------2------- 
pm .. .. .. .. .. .. 
 
Chorus 
e------------------------------ 
b------------------------------ 
g------------------------------ 
d-2-4-4-4----------------------  x10 
a-2-4-4-4---------------------- 
e-0-2-6-2---------------------- 
 
Solo 
e------------------------------ 
b------------------------------  
g--444444444-------------------  
d--444444444------------------- 
a--222222222------------------- 
e------------------------------ 
pm ......... 
 
cont. solo... 
 
e------------------------------ 
b------------------------------ 
g-654654654654654654654654654-- 
d------------------------------  x2 
a------------------------------ 
e------------------------------ 
 
Outro 
 
e------------------------------ 
b------------------------------ 
g------------------------------ 
d-2-4-4-4----------------------  x10 
a-2-4-4-4---------------------- 
e-0-2-6-2---------------------- 
 

	  

Search Paypal
auto scroll beats size up size down change color hide chords drawings
tab show chords e-chords YouTube Clip e-chords hide all tabs e-chords go to top tab